Oops, an error
Loading. Please wait.

Moonshine bass

by Rufio
302 views 1 this week
no commentswrite comment
1 2 3 4 5
3 more votes to show rating
add to favorites
×
Save as Personal and add changes to this tab that will be seen only by you. Learn more ›
×
You can save this tab as Personal to edit and correct it or add notes. All changes will be seen only by you. Learn more »
launch autoscroll
font size
0
reset
guitar tuner
edit
Autoscroll
slow
fast
+/-
esc
set tempo
stop
Author
++++++++++++++++++++
| Rufio- Moonshine |
++++++++++++++++++++


"Through the window you can see..."


Tuning: EADG



Intro
1.
G|-----------------------------|
D|-----------------------------|
A|--------2~-22~-4~-42~-0~-00~-|
E|-0~-00~----------------------|

Verse
"These long, hot dead end nights..."
2.
G|-------------------------------------------------------------------------|
D|-------------------------------------------------------------------------|
A|----------22222222-44444444-00000000----------22222222-44444444-00000000-|
E|-00000000----------------------------00000000----------------------------|

Pre-Chorus
"And in the bedroom I am hiding..." (1 and 2 not 12)
3.
G|-------------------------------------------------------------------------|
D|---12--12-----7642---12--12-----7642---12--12-----7642---12--12----------|
A|-44--22---0000-----44--22---0000-----44--22---0000-----44--22---00000000-|
E|-------------------------------------------------------------------------|

Chorus
"And the moon is shining..."
4.
G|-------------------------------------------------------------------------|
D|--------------------------------7642-------------------------------------|
A|----------22222222-44444444-0000--------------22222222-44442222-00000000-|
E|-00000000----------------------------00000000----------------------------|

Outro
5.
G|-------------------------------------|
D|-------------------------------------|
A|----------22222222-44442222-00000000-|
E|-00000000----------------------------|

Verse
"I hear the distant calls..."
6.
G|-------------------------------------------------------------------------|
D|-------------------------------------------------------------------------|
A|----------22222222-44444444-00000000----------22222222-44444444-00000000-|
E|-00000000----------------------------00000000----------------------------|

Pre-Chorus
"And in the bedroom I am hiding..." (1 and 2 not 12)
7.
G|-------------------------------------------------------------------------|
D|---12--12-----7642---12--12-----7642---12--12-----7642---12--12----------|
A|-44--22---0000-----44--22---0000-----44--22---0000-----44--22---00000000-|
E|-------------------------------------------------------------------------|

Chorus
"And the moon is shining..."
8.
G|-------------------------------------------------------------------------|
D|--------------------------------7642-------------------------------------|
A|----------22222222-44444444-0000--------------22222222-44442222-00000000-|
E|-00000000----------------------------00000000----------------------------|

Bridge
"Now keep it inside..."
9.
G|-------------------------------------------------------------------------|
D|-------------------------------------------------------------------------|
A|-44444444-22222222-00000000-00000000-44444444-22222222-00000000-00000000-|
E|-------------------------------------------------------------------------|

Chorus
"And the moon is shining..."
10.
G|--------------------------------------------------------------------------------------------|
D|--------------------------------7642--------------------------------------------------------|
A|----------22222222-44444444-0000--------------22222222-4~--2~---0~-------4~--6~---7~--------|
E|-00000000----------------------------00000000-----------------------------------------------|

Outro
"Oh love to be here..."
11.
G|--------------------------------------------------|
D|--------------------------------------------------|
A|--------2~----4~----0~----------2~----4~----0~----|
E|-0~-----------------------0~----------------------|


Please rate thanks!!


Lyrics:

These long, hot dead end nights are cold
And I just keep on slipping away
'Cause I'm scared to death of what's outside
My heart, it only keeps me awake

And in the bedroom I am hiding
Through the window you can see
In the dim light I am not aching
If there's a problem, it's not to me

And the moon is shining
And it makes me carry on
When you're least expecting
It will bring you to your knees

I hear the distant calls
And I think about the things they could mean
And maybe I've been living blind 
Just believing what I can see

And in the bedroom I am hiding
Through the window you can see
In the dim light I am not aching
If there's a problem, it's not to me

Now keep it inside, there's no better mine
I cannot explain if you're not here
We'll keep it inside there is no better mine
I cannot explain if you're not here

Oh, love to be here but how can I stay?
Oh, hate to be here but how can I go? 



+++++++++++++++++++++++++++++++++
| Raileff                       |
| Underground__Dora@Hotmail.Com |
+++++++++++++++++++++++++++++++++

            
            
Suggest correction
Creating personal tab
Creating personal tab
You can edit any tab online and save it as your Personal.

You can edit, replace or remove any tab part or add personal notes – all changes will be seen only by you.

Personal tabs can be accessed anytime from any device, even offline.
Learn more »
Give kudos to tab author, rate the tab!
1 2 3 4 5
comments
print report bad tab
guest
You may want to rate the tab now too:
select rating
Wanna post a correction for this tab? Suggest correction