Oops, an error
Loading. Please wait.

Out Of Control bass

version 1
version 1

Whole song

Interactive

by Rufio
1,244 views 6 this week
2 commentsread comments
1 2 3 4 5
1 last vote to show rating
add to favorites
×
Save as Personal and add changes to this tab that will be seen only by you. Learn more ›
×
You can save this tab as Personal to edit and correct it or add notes. All changes will be seen only by you. Learn more »
launch autoscroll
font size
0
reset
guitar tuner
edit
Autoscroll
slow
fast
+/-
esc
set tempo
stop
Tabbed By : Xcrimson_ghostX
e-mail: skawful27@aim.com

Tuning: standard

Intro
G|-------------------------------|
D|-------------------------------| 4x
A|-----------------5-555-55------|
E|--2-22-/-5-55---------------2--|

Pre-Verse
G|------------------------------------------------6--------------6--|
D|----4-/-7p6--4p2----4-/-7p6--4p2---0-7---9-7-6-0-7---9-7-6--------|
A|------------------------------------------------------------------|
E|--2-------------------2-------------------------------------------|

G|------------------------------------------------6--------------6-7x-6x--|
D|----4-/-7p6--4p2----4-/-7p6--4p2---0-7---9-7-6-0-7----------------------|
A|------------------------------------------------------------------------|
E|--2-------------------2-------------------------------------------------|

Verse
G|-------------------------------|
D|-------------------------------| 4x
A|-----------------5-555-55------|
E|--2-22-/-5-55---------------2--|

Pre-Chorus
G|----------------------------------------|
D|----------------------------------------| 4x
A|----------------------------------------|
E|--202-2-0--505-5-0--202-2-0~--77-55-00--|

G|-------------------------------|
D|-------------------------------| 4x
A|-------------------------------|
E|--202-2-0--505-5-0--202-2-0~---|

Chorus
G|----------------------------------------------------------------|
D|---------------2------------------------------------------------|3x
A|---------2h4----55-44-22-00-22-00-------------------------------|
E|--0h2h4---------------------------------44-00--22x-0h22x-0h22x--|

G|--------------------------------------------------------------------|
D|---------------2----------------------------------------------------| 
A|---------2h4----55-44-22-00-22-00-----------------------------------|
E|--0h2h4---------------------------------44-00--2222-0000-2222-0000--|

Pre Verse 1x
Verse 4x
Pre-Chorus

2nd Chorus:
G|----------------------------------------------------------------|
D|---------------2------------------------------------------------|3x
A|---------2h4----55-44-22-00-22-00-------------------------------|
E|--0h2h4---------------------------------44-00--22x-0h22x-0h22x--|

G|---------------------------------------------------------------------------|
D|---------------2-----------------------------------------------------------| 
A|---------2h4----55-44-22-00-22-00------------------------------------------|
E|--0h2h4---------------------------------44-00--2222-0000-2222/12-12-12-12--|

Bridge:
G|-------------------|
D|-------------------| 4x
A|-------------------|
E|--2-2~~~/--14~-----|

G|-----------------------------|
D|-----------------------------| 2x
A|---------------5-555-55------|
E|--2-00h2/-5---------------2--|

G|---------------------------|
D|---------------------------| 1x
A|---------------------------|
E|--2-00h2/-5p0~~~----/10~~x-|

Rest

These are twelves and elevens
G|-------------------------------------------------|
D|--1212-1111-99-77-99-77-66-----------------------| 1x
A|-------------------------------------------------|
E|----------------------------------------2-222-00-|

2nd Chorus 1x
Pre-verse 1x

End on:
E|--2--|

| /  slide up
| \  slide down
| h  hammer-on
| p  pull-off
| ~  vibrato
| +  harmonic
| x  Mute note
===============================================================================

            
            
Suggest correction
Creating personal tab
Creating personal tab
You can edit any tab online and save it as your Personal.

You can edit, replace or remove any tab part or add personal notes – all changes will be seen only by you.

Personal tabs can be accessed anytime from any device, even offline.
Learn more »
Give kudos to tab author, rate the tab!
1 2 3 4 5
comments
print report bad tab
2 comments total.
0 reply
RaiLeff 12,922 Jun 24, 2007 09:34 AM

This is a great tab man
Good work
5* :D

0 reply
astiggurl28 51 Sep 22, 2007 09:18 PM

great tab but somethings wrong with the verse

guest
You may want to rate the tab now too:
select rating
Wanna post a correction for this tab? Suggest correction