Oops, an error
Loading. Please wait.

Tears bass

version 1
version 1

Whole song

Interactive

by Rufio
111 views 1 this week
no commentswrite comment
1 2 3 4 5
2 more votes to show rating
add to favorites
×
Save as Personal and add changes to this tab that will be seen only by you. Learn more ›
×
You can save this tab as Personal to edit and correct it or add notes. All changes will be seen only by you. Learn more »
launch autoscroll
font size
0
reset
guitar tuner
edit
Autoscroll
slow
fast
+/-
esc
set tempo
stop
++++++++++++++++
| Rufio- Tears |
++++++++++++++++

Drop D

Intro
1.
|--------------------|
|--------------------|
|-0~---2~-3~---------|--x2
|------------1~---3~-|

2.
|-----------------------------------|
|-----------------------------------|
|-0x-0-------------0x-0-------------|
|-----1-0-11111111-----1-0-11111111-|

3.
|-----------------------------|
|-----------------------------|
|-0x-0-------------0x-0-------|
|-----1-0-11111111-----1-0-1~-|

Verse
"I sit and hear you sleep.." x2
4.
|--------------------|
|------------3~---5~-|
|-0~---2~-3~---------|
|--------------------|

"I talk to you.." x2
5.
|-----------------------------------------------------------|
|-----------------------------333333-333333-555555-555555---|
|-000000-000000-222222-333333-------------------------------|
|-----------------------------------------------------------|

Chorus
"Tears are feelings we can't say.."
6.
|-------------------------------------------|
|-------------------------------------------|
|-0-0000-0-------------0-0000-0-------------|
|---------1-0-11111111---------1-0-11111111-|

"Tears are mixed emotions.."
7.
|-------------------------------------|
|-------------------------------------|
|-0-0000-0-------------0-0000-0-------|
|---------1-0-11111111---------1-0-1~-|

Outro
"The pouring rain.."       x2
8.
|-2~-5~---------------|
|-------5~-2~-3~---5~-|
|---------------------|
|---------------------|

Verse
"I sit and watch you.."   x2
9.
|--------------------|
|------------3~---5~-|
|-0~---2~-3~---------|
|--------------------|

Pre-Chorus
"And I tell you.."
10.
|-----------------------------------------------------|
|--------------------------3333333x---5555555-5555555-|
|-0000000x---222222-333333----------------------------|
|-----------------------------------------------------|

Chorus
"Tears are feelings we can't say.."
11.
|-------------------------------------------|
|-------------------------------------------|
|-0-0000-0-------------0-0000-0-------------|
|---------1-0-11111111---------1-0-11111111-|

"Tears are mixed emotions.."
12.
|-------------------------------------|
|-------------------------------------|
|-0-0000-0-------------0-0000-0-------|
|---------1-0-11111111---------1-0-1~-|

Outro
"It's the light.."  x4
13.
|-----------------|
|-----------------|
|-----------------|
|-000-111-333-333-|

14.
|-555555-444444-555555-999-777-|
|------------------------------|
|------------------------------|   x4
|------------------------------|

Chorus
"Tears are feelings we can't say.."
15.
|-------------------------------------------|
|-------------------------------------------|
|-0-0000-0-------------0-0000-0-------------|
|---------1-0-11111111---------1-0-11111111-|

"Tears are mixed emotions.."
16.
|-------------------------------------|
|-------------------------------------|
|-0-0000-0-------------0-0000-0-------|
|---------1-0-11111111---------1-0-1~-|

+++++++++++++++++++++++++++

Lyrics:


I sit and hear you sleep
I don't want to go
Your there beside me
But you're so far away
I talk to you
While you're asleep
You can't say a word
You can hear everything

Tears are feelings we cant say
Tears mean that you care
Tears are mixed emotions
Tears are more than tears

The pouring rain
From my eyes
Means to much
To keep inside

I sit and watch you
Leave my life forever
I know you'll be gone so long
My last words are nothing
And I tell you I care
And nothing more
I can't say how I feel
So I cry

Tears are feelings we cant say
Tears mean that you care
Tears are mixed emotions
Tears are more than tears

It's the light
Behind the shadow
That sacred face
Behind the mask

+++++++++++++++++++++++++++

+++++++++++++++++++++++++++++++++
| RaiLeff                       |
| Underground__Dora@hotmail.com |
+++++++++++++++++++++++++++++++++

            
            
Suggest correction
Creating personal tab
Creating personal tab
You can edit any tab online and save it as your Personal.

You can edit, replace or remove any tab part or add personal notes – all changes will be seen only by you.

Personal tabs can be accessed anytime from any device, even offline.
Learn more »
Give kudos to tab author, rate the tab!
1 2 3 4 5
comments
print report bad tab
guest
You may want to rate the tab now too:
select rating
Wanna post a correction for this tab? Suggest correction