Oops, an error
Loading. Please wait.

Jeg Ved Det Godt chords

version 3
version 3

Whole song

837 views 1 this week
1 commentread comment
1 2 3 4 5
2 more votes to show rating
add to favorites
×
Save as Personal and add changes to this tab that will be seen only by you. Learn more ›
×
You can save this tab as Personal to edit and correct it or add notes. All changes will be seen only by you. Learn more »
launch autoscroll
font size
0
reset
transpose
0
reset
simplify chords
display chords
guitar tuner
edit
Autoscroll
slow
fast
+/-
esc
set tempo
stop
Author
Difficulty
Strumming
There is no strumming pattern for this song yet. and get +5 IQ
   _________________________
  / Rugsted & Kreutzfeldt  /  Dette er akkorderne til denne udødelige evergreen.
 / Jeg Ved Det Godt       /  Nederst har jeg noteret nogle akkorder og til sidst
/________________________/  teksten.


 1. Vers:      | A | – | – | – |

               | E | –  D/E |


               | A | – | – | – |

               | E | – |


               | Dmaj7 | – | C#m7 | –  (Cm7)|

               | Bm7 | E13(b9) | A | A Bm7 C#m7 Bm7 Dmaj7 |


               | Dmaj7 | – | C#m7/G# | C#m7 |

               | F#m7 | – | Fmaj7 | D/E |



 2. Vers:      magen til 1. Vers,
               men sidste takt, op til omkvædet, er det i stedet | F/G |,
               for her modulerer sangen til C dur.



 Slut-Omkvæd:      ||: Cmaj7 | Em7 | Dm7 | F/G :|| 3x



 Guitar mellemspil 1:
  Bb        F/A       C/E             F        C           Bb/C
|-------13--13--15--|------------------------|-----------|-----------|
|-13b15-------------|-15pb17r15-13-------13--|-13~-------|-----------|
|-------------------|---------------/14------|-----------|-----------|
|-------------------|------------------------|-----------|-----------|
|-------------------|------------------------|-----------|-----------|
|-------------------|------------------------|-----------|-----------|

 

 3. Vers:     magen til 2. Vers

 Omkvæd:      magen til før



 Guitar mellemspil 2:
  Bb        F/A       C/E          tromme-break
|-------13--13--15--|--------------------------|
|-13b15-------------|-15pb17r15-13~------------|
|-------------------|--------------------------| Her til slut modulerer
|-------------------|--------------------------| sangen en hel tone op
|-------------------|--------------------------| fra C dur til D dur.
|-------------------|--------------------------|



 Slut-Omkvæd:  ||: Dmaj7 | F#m7 | Em7 | G/A :|| gentag ad.lib.



 AKKORDER
************
Her foreslår jeg blot nogle akkorder til lejrbålsguitarversionen.

 Vers [A dur]
    A   E  D/E    Dmaj7  C#m7  Cm7  Bm7  E13(b9) C#m7/G#  F#m7  Fmaj7  F/G
:---0---0---2---:---5-----4-----3----2------1-------4------0------0-----1---:
:---2---0---3---:---7-----5-----4----3------2-------5------2------1-----1---:
:---2---1---2---:---6-----4-----3----2------1-------4------2------2-----2---:
:---2---2---4---:---7-----6-----5----4------0-------6------2------3-----3---:
:---0---2---x---:---5-----4-----3----2------2-------x------x------3-----x---:
:-------0---0---:---------------------------0-------4------2------1-----3---:


 Omkvæd [C dur]          Guitar mellemspil             Omkvæd [D dur]
  Cmaj7  Em7  Dm7  F/G      Bb  F/A  C/E  F   C  Bb/C   Dmaj7  F#m7  Em7  G/A
:---3-----3----1----1---:---1----1----0---1---0---1---:---5-----9-----7----7---:
:---5-----3----1----1---:---3----1----1---1---1---3---:---7----10-----8----8---:
:---4-----0----2----2---:---3----2----0---2---0---3---:---6-----9-----7----7---:
:---5-----2----0----3---:---3----3----2---3---2---x---:---7----11-----9----9---:
:---3-----2---------x---:---1----0----3---3---3---3---:---5-----9-----7----0---:
:---------0---------3---:-------------0---1-----------:---------------0--------:



 TEKST
*********
Jeg be'r om mere end jeg kan få,
langt mere end jeg kan nå.
Jeg har et temperament for to
og kan ikke falde til ro.
Og når de andre ser på dig,
tror jeg du går fra mig.
Og mange gange var det mig der blev vred,
og dine tårer løb med min samvittighed.
 
Selv min allerbedste ven
ka' jeg såre tit igen.
Mørket samles i mit sind,
og jeg famler som en blind.
Nu' jeg ked af hvad jeg gav,
ked af al' de ting, jeg sagde.
Jeg mente det jo ikke nær så slemt.
Men hvad gør jeg nu?
Bare det hele var glemt.

Jeg ved det godt,
men det' for sent nu.
Jeg ved det godt,
men det' for sent nu.
Ved det egentlig godt,
men det' for sent nu.

Men når jeg falder lidt til ro,
ser jeg du er stadig tro.
Dine kræfter rækker langt,
skønt jeg gør dig livet trangt.
For jeg er stadig fuld af fejl
– dem der gør mig stejl.
Og når jeg vågner, ved jeg du har grædt.
Var for hård igen, hvornår bli'r du træt?

Jeg ved det godt,
men det' for sent nu.
Jeg ved det godt,
men det' for sent nu.
Ved det egentlig godt,
for det' for sent nu.



------------------------------------------------------------------------------
 1st /September /11
 Just mail me at Maitinin@gmail.com with questions, comments and corrections!
------------------------------------------------------------------------------


 " Maitinin writing here - the author of this tab.

   The past 11 years, I have generated 10,318,000 views and 815 top-rated tabs for this site.
   If you want to support an eager contributor like me, check out my own site:


   _____  http://www.PlayLikeTheGreats.com  _____


   Here I will continue to upload and improve my transcriptions.

   Best regards,
   Maitinin

   July, 2015 "

            
            
Suggest correction
Creating personal tab
Creating personal tab
You can edit any tab online and save it as your Personal.

You can edit, replace or remove any tab part or add personal notes – all changes will be seen only by you.

Personal tabs can be accessed anytime from any device, even offline.
Learn more »
Give kudos to tab author, rate the tab!
1 2 3 4 5
comments
print report bad tab
1 comment total.
0 reply
jens.vester 10 Sep 17, 2017 01:57 PM

Fedt arbejde lige hvad jeg søgte :)

guest
You may want to rate the tab now too:
select rating
Wanna post a correction for this tab? Suggest correction