Oops, an error
Loading. Please wait.

My Sweet Escape Acoustic ukulele

94 views 1 this week
no commentswrite comment
1 2 3 4 5
3 more votes to show rating
add to favorites
×
Save as Personal and add changes to this tab that will be seen only by you. Learn more ›
×
You can save this tab as Personal to edit and correct it or add notes. All changes will be seen only by you. Learn more »
launch autoscroll
font size
0
reset
transpose
0
reset
simplify chords
display chords
guitar tuner
edit
Autoscroll
slow
fast
+/-
esc
set tempo
stop
Strumming
There is no strumming pattern for this song yet. and get +5 IQ
Run Kid Run - My Sweet Escape (Acoustic)
Capo 2

Intro (relative to capo):
e|--------------------------3-2--------3p2--------------3p2--------------------|
B|-------3-1-0---0----------3----3----------3-0-3-----------3---3--------------|
G|-------0-0---------2-0----0---------------------------------0----------------|
D|--------------------------0--------0--------------0--------------------------|
A|-----------------------2-----------------------------------------------------|
E|--3--3-----------------------------------------------------------------------|

verse 1:
        C2  G       D     Em    C2   G
This is it, confidence is all I need
        D          Em       C2   G  D    Em     C2 G
This is how You're going to save me from myself
     D        Em
From all that fails

(relative to capo)
e|-------2-3-5-3-3------2-3-5-3--------| x2 through the rest of the verse
B|--3--5-----------3--5----------------|
G|-------------------------------------|
D|-------------------------------------|
A|-------------------------------------|
E|-------------------------------------|

      C2      G      D         Em     C2   
I see You and me and everything in between
      G        D             Em
And I know I'm wrong but You long to
C2       G       D          Em    C2    G
Fuel the fire beneath these tired bones
     D
As I dance this road to 

Chorus:
Em    C2      G 
Right back to You
  D        Em    C2      G        D 
A place of sweet escape I fell into
   Em  C2    G      D     C2  G     D
My everything will always sing Your glory

Verse 2:

C2      G D           Em          C2  
Progress, I confess is way overdue
      G                D                   Em C2
I get caught up in the things that I've held onto
    G   D    Em        C2
For too long I've been alone
G   D             Em
I'm stronger every step I take


e|------------------------------------------|
B|-------3-------3-------3-------3----------|
G|-----0---0---0---0---0---0---0---0--------|
D|---4-------4-------4-------4--------------|
A|------------------------------------------|
E|------------------------------------------|

Back to
Em  C2      G
Run back to You
  D        Em    C2       G       D
A place of sweet escape I fell into
  Em    C2      G     D        Em  C2           G        D
A familiar taste that You have made inside this refuge I can't create
Em  C2      G
All back to You
  D        Em    C2       G      D       C2 G D
A place of sweet escape I fell into Your glory, 
     C2 G D
Your glory

(relative to capo)
e|-----------------------------------------------3p2-------------------|
B|---3-----3------0-------------3-----3----------3----3h5---5p3---3----|
G|-----0-----0--------------------0-----0------0------0---0-----0---0--|
D|-------------------0-------------------------------------------------|
A|-------------------3----------------------3--------------------------|
E|-0-----2------3-------------0-----2-----3----------------------------|

e|---------------------------------------------------------------------|
B|------------------3-----3-------3-2----------------------------------|
G|-----0-----0----2---2-----2---2--------------------------------------|
D|---0-----0------------0-----0----------------------------------------|
A|-3-----2-----0-------------------------------------------------------|
E|---------------------------------------------------------------------|

     C2   G   D  Em   D/F#    C2      G       D    Em xxx F#
Sing Hallelujah, I'll forever sing to lift You up
     C2   G   D  Em   D/F#    C2      G       D
Sing Hallelujah, I'll forever sing to lift You up
Em  D/F#   C2 G  D
You are my King
Em  D/F#   C2 G  D
You are my King

            
            
Suggest correction
Creating personal tab
Creating personal tab
You can edit any tab online and save it as your Personal.

You can edit, replace or remove any tab part or add personal notes – all changes will be seen only by you.

Personal tabs can be accessed anytime from any device, even offline.
Learn more »
Give kudos to tab author, rate the tab!
1 2 3 4 5
comments
print report bad tab
guest
Wanna post a correction for this tab? Suggest correction