Oops, an error
Loading. Please wait.

Mr Brightside tab

4,486 views 51 this week
no commentswrite comment
1 2 3 4 5
x 9
add to favorites
×
Save as Personal and add changes to this tab that will be seen only by you. Learn more ›
×
You can save this tab as Personal to edit and correct it or add notes. All changes will be seen only by you. Learn more »
launch autoscroll
font size
0
reset
how to read this tab
guitar tuner
edit
Autoscroll
slow
fast
+/-
esc
set tempo
stop
Run River North
Mr. Brightside (The Killers cover)

Tabbed by ear, so it's not perfect. Please let me know of any corrections.

- represents each sixteenth note
h is a hammer-on
d is a down strum
u is an up strum

[Lyrics not perfectly spaced with tabs]
Unmarked lyrics/Mal = Male (Alex Hwang) singing
Fem = Female (Sally Kang) singing

Capo 2
Swing


Intro

                                                      h h
e |----------------|----------------|----------------|----------------|----------------|
B |----------------|----------------|----------1-----|------1-----0-1-|----------------|
G |------0---------|------0---------|------0---------|--02------2-----|------2---------|
D |--2-------2---0-|--0-------0-----|--2---------2---|23--------------|--3-------3---2-|
A |3---3-------3---|2---2-------2-0-|0---0-----------|----------------|----0-------0---|
E |----------------|----------------|----------------|----------------|----------------|
   1 + 2 + 3 + 4 +
                                                      h h
e |----------------|----------------|----------------|----------------|----------------|
B |----------------|----------------|------1---------|------1-----0-1-|----------------|
G |------0-------0-|------0-------0-|--0-------0---0-|--02------2-----|------2-------0-|
D |--2-------2-----|--0-------0-----|2---2-------2---|23--------------|--3-------3-----|
A |3---3-------3---|2---2-------2---|----------------|----------------|----0-------0---|
E |----------------|----------------|----------------|----------------|----------------|

Verse

e |----------------|----------------|----------------|----------------|
B |----------------|----------------|----------------|----------------|
G |------0---------|------0-------0-|------0-------2-|------2-------0-|
D |--2-------2---0-|--0-------0-----|--2-------2-----|--3-------3-----|
A |3---3---3---3---|2---2---2---2---|0---0---0---0---|0---0---0---0---|
E |----------------|----------------|----------------|----------------|
    Comin' out of my cage
    doin' just fine
    Gotta gotta be down
    want it all

e |----------------|----------------|----------------|----------------|
B |----------------|----------------|----------------|----------------|
G |------0-------0-|------0-------0-|------0-------2-|------2-------0-|
D |--2-------2-----|--0-------0-----|--2-------2-----|--3-------3-----|
A |3---3---3---3---|2---2---2---2---|0---0---0---0---|0---0---0---0---|
E |----------------|----------------|----------------|----------------|
    Started out with a kiss   
    How did it end up like this?
    Only a kiss
    It was only a...
                                     h                h h
e |----------------|----------------|----------------|----------------|----------------|
B |----------------|------1---------|------1---------|------1-----0-1-|----------------|
G |------0---------|----------0---0-|--0-------0---0-|--02------2-----|------2-------0-|
D |--2-------2---0-|--0-------------|02--2-------2---|23--------------|--3-------3-----|
A |3---3-------3---|2---2-------2---|----------------|----------------|----0-------0---|
E |----------------|----------------|----------------|----------------|----------------|
    kiss

e |----------------|----------------|----------------|----------------|
B |----------------|----------------|----------------|----------------|
G |------0-------0-|------0-------0-|------0-------2-|------2-------0-|
D |--2-------2-----|--0-------0-----|--2-------2-----|--3-------3-----|
A |3---3---3---3---|2---2---2---2---|0---0---0---0---|0---0---0---0---|
E |----------------|----------------|----------------|----------------|
    Now I'm falling asleep
    she's callin' a cab
    While he's havin' a smoke
    she's takin' a drag

e |----------------|----------------|----------------|----------------|----------------|
B |----------------|----------------|----------------|----------------|----------------|
G |------0-------0-|------0-------0-|------0-------2-|------2-------2-|------2-------0-|
D |--2-------2-----|--0-------0-----|--2-------2-----|--3-------3-----|--3-------3-----|
A |3---3---3---3---|2---2-------2---|0---0-------0---|0---0-------0---|----0-------0---|
E |----------------|----------------|----------------|----------------|----------------|
    And they're going to bed
    my stomach is sick
    it's all in my head

e |----------------|----------------|----------------|----------------|
B |----------------|----------------|----------------|------1---------|
G |------0-------0-|------0-------0-|------0-------0-|--------------0-|
D |--2-------2-----|--0-------0-----|--2-------2-----|--3-------3-----|
A |3---3-------3---|2---2-------2---|0---0-------0---|0---0-------0---|
E |----------------|----------------|----------------|----------------|
    She's touching his chest now
    He takes off her dress now
    Let me...
                                     h                h h
e |----------------|----------------|----------------|----------------|----------------|
B |----------------|------1---------|------1---------|------1-----0-1-|----------------|
G |------0-------0-|----------0---0-|--0-------0---0-|--02------2-----|------2-------0-|
D |--2-------2-----|--0-------------|02-2--------2---|23--------------|--3-------3-----|
A |3---3-------3---|2---2-------2---|----------------|----------------|----0-------0---|
E |----------------|----------------|----------------|----------------|----------------|
    go

e |----------------|----------------|----------------|----------------|
B |----------------|----------------|----------------|------1---------|
G |------0-------0-|------0-------0-|------0-------2-|--------------0-|
D |--2-------2-----|--0-------0-----|--2-------2-----|--3-------3-----|
A |3---3---3---3---|2---2-------2---|0---0-------0---|0---0-------0---|
E |----------------|----------------|----------------|----------------|
    I just can't look
    It's killing me
    And it's...
                                                      h h
e |----------------|----------------|----------------|----------------|----------------|
B |----------------|----------------|-------1--------|------1-----0-1-|----------------|
G |------0-------0-|------0---0---0-|----------0---0-|--02------2-----|------2-------0-|
D |--2-------2-----|--0-------------|--2---------2---|23--------------|--3-------3-----|
A |3---3-------3---|2---2-------2---|0---0-----------|----------------|----0-------0---|
E |----------------|----------------|----------------|----------------|----------------|
    taking                   control

Chorus

e |----------------|----------------|----------------|----------------|
B |----------------|----------------|----------------|----------------|
G |------0---------|------0-------0-|------0-------2-|------2-------0-|
D |--2-------2---0-|--0-------0-----|--2-------2-----|--3-------3-----|
A |3---3-------3---|2---2-------2---|0---0-------0---|0---0-------0---|
E |----------------|----------------|----------------|----------------|
    Jealousy turning saints into the sea


e |----------------|----------------|----------------|----------------|
B |----------------|----------------|----------------|----------------|
G |------0-------0-|------0-------0-|------0-------2-|------2-------0-|
D |--2-------2-----|--0-------0-----|--2-------2-----|--3-------3-----|
A |3---3-------3---|2---2-------2---|0---0-------0---|0---0-------0---|
E |----------------|----------------|----------------|----------------|
    Swimmin' through sick lullabies
    Choking on your alibis
    But it's just the...

e |----------------|----------------|----------------|----------------|
B |----------------|----------------|----------------|----------------|
G |------0-------0-|------0-------0-|------0-------2-|------2-------0-|
D |--2-------2-----|--0-------0-----|--2-------2-----|--3-------3-----|
A |3---3-------3---|2---2-------2---|0---0-------0---|0---0-------0---|
E |----------------|----------------|----------------|----------------|
    price I pay
    Destiny is calling me
    Open up...

e |----------------|----------------|----------------|----------------|
B |----------------|----------------|----------------|------1---------|
G |------0-------0-|------0-------0-|--0---0---0---0-|--2-----------0-|
D |--2-------2-----|--0-------0-----|----2---2---2---|3---3-----3-----|
A |3---3-------3---|2---2-------2---|0---------------|------------0---|
E |----------------|----------------|----------------|----------------|
    my eager eyes
    I'm Mr. Brightside tonight

Violin solo begins
                                                      h h
e |----------------|----------------|----------------|----------------|
B |----------------|----------------|------1---------|------1---------|
G |------0-------0-|------0-------0-|----------0---0-|--02----------0-|
D |--2-------2-----|--0-------0-----|--2---------2---|23--------3-----|
A |3---3-------3---|2---2-------2---|0---0-----------|------------0---|
E |----------------|----------------|----------------|----------------|

                                                      h h
e |----------------|----------------|----------------|----------------|
B |----------------|----------------|------1---------|------1---------|
G |------0-------0-|------0-------0-|----------0---0-|--02----------0-|
D |--2-------2-----|--0-------0-----|--2---------2---|23--------3-----|
A |3---3-------3---|2---2-------2---|0---0-----------|------------0---|
E |----------------|----------------|----------------|----------------|

                                                      h
e |----------------|----------------|----------------|----------------|
B |----------------|----------------|----------------|------1---------|
G |------0-------0-|------0-------0-|------0-------0-|--0-----------0-|
D |--2-------2-----|--0-------0-----|--2-------2-----|23-3------3-3---|
A |3---3-------3---|2---2-------2---|0---0-------0---|----------------|
E |----------------|----------------|----------------|----------------|

                                                      h
e |----------------|----------------|----------------|----------------|
B |----------------|----------------|------1---------|----------------|
G |------0-------0-|------0-------0-|----------0---0-|--0---2-------0-|
D |--2-------2-----|--0-------0-----|--2---------2---|23-3------3-----|
A |3---3-------3---|2---2-------2---|0---0-----------|------------0---|
E |----------------|----------------|----------------|----------------|
                                                                    I
Violin solo ends

e |----------------|----------------|----------------|----------------|
B |----------------|----------------|----------------|----------------|
G |------0---------|------0-------0-|------0-------2-|------2-------0-|
D |--2-------2---0-|--0-------0-----|--2-------2-----|--3-------3-----|
A |3---3-------3---|2---2-------2---|0---0-------0---|0---0-------0---|
E |----------------|----------------|----------------|----------------|
    never                                                           I
                                                      h
e |----------------|----------------|----------------|----------------|
B |----------------|----------------|------1---------|------1---------|
G |------0-------0-|------0-------0-|----------0---0-|--0-----------0-|
D |--2-------2-----|--0-------0-----|--2---------2---|23-3------3-----|
A |3---3-------3---|2---2-------2---|0---0-----------|------------0---|
E |----------------|----------------|----------------|----------------|
    never                                                           I

e |----------------|----------------|----------------|----------------|
B |----------------|----------------|------1---------|------1---------|
G |------0-------0-|------0-------0-|----------0---0-|--2-------------|
D |--2-------2-----|--0-------0-----|--2---------2---|3---3-----3---2-|
A |3---3-------3---|2---2-------2---|0---0-----------|------------0---|
E |----------------|----------------|----------------|----------------|
    never                                                           I
                    G                Am            F
                    d     d   u d u  d   d u   u d u    u d u   u d u
e |----------------|x-----x---x-x-x-|0---0-0---0-0-1-|--1-1-1---1-1-1-|
B |------1---------|1-----1---1-1-1-|1---1-1---1-1-1-|--1-1-1---1-1-1-|
G |--------------0-|0-----0---0-0-0-|2---2-2---2-2-2-|--2-2-2---2-2-2-|
D |--2-------2-----|0-----0---0-0-0-|2---2-2---2-2-3-|--3-3-3---3-3-3-|
A |3---3-------3---|2-----2---2-2-2-|0---0-0---x-x-x-|--x-x-x---x-x-x-|
E |----------------|x-----x---x-x-x-|x---x-x---x-x-x-|--x-x-x---x-x-x-|
    never

Chorus

   C                G                Am            F
   d   d u   u d u  d   d u   u d u  d   d u   u d u    u d u   u d u
e |0---0-0---0-0-0-|x---x-x---x-x-x-|0---0-0---0-0-1-|--1-1-1---1-1-1-|
B |1---1-1---1-1-1-|1---1-1---1-1-1-|1---1-1---1-1-1-|--1-1-1---1-1-1-|
G |0---0-0---0-0-0-|0---0-0---0-0-0-|2---2-2---2-2-2-|--2-2-2---2-2-2-|
D |2---2-2---2-2-2-|0---0-0---0-0-0-|2---2-2---2-2-3-|--3-3-3---3-3-3-|
A |3---3-3---3-3-3-|2---2-2---2-2-2-|0---0-0---x-x-x-|--x-x-x---x-x-x-|
E |x---x-x---x-x-x-|x---x-x---x-x-x-|x---x-x---x-x-x-|--x-x-x---x-x-x-|
Fem: Jealousy turning saints into the sea
     Swimming through sick...
Mal: Oh I never
                        Oh I never
   C                G                Am            F
   d   d u   u d u  d   d u   u d u  d   d u   u d u    u d u   u d u
e |0---0-0---0-0-0-|x---x-x---x-x-x-|0---0-0---0-0-1-|--1-1-1---1-1-1-|
B |1---1-1---1-1-1-|1---1-1---1-1-1-|1---1-1---1-1-1-|--1-1-1---1-1-1-|
G |0---0-0---0-0-0-|0---0-0---0-0-0-|2---2-2---2-2-2-|--2-2-2---2-2-2-|
D |2---2-2---2-2-2-|0---0-0---0-0-0-|2---2-2---2-2-3-|--3-3-3---3-3-3-|
A |3---3-3---3-3-3-|2---2-2---2-2-2-|0---0-0---x-x-x-|--x-x-x---x-x-x-|
E |x---x-x---x-x-x-|x---x-x---x-x-x-|x---x-x---x-x-x-|--x-x-x---x-x-x-|
    lullabies
    Choking on your alibi
    But it's just the...
   C                G                Am            F
   d   d u   u d u  d   d u   u d u  d   d u   u d u    u d u   u d u
e |0---0-0---0-0-0-|x---x-x---x-x-x-|0---0-0---0-0-1-|--1-1-1---1-1-1-|
B |1---1-1---1-1-1-|1---1-1---1-1-1-|1---1-1---1-1-1-|--1-1-1---1-1-1-|
G |0---0-0---0-0-0-|0---0-0---0-0-0-|2---2-2---2-2-2-|--2-2-2---2-2-2-|
D |2---2-2---2-2-2-|0---0-0---0-0-0-|2---2-2---2-2-3-|--3-3-3---3-3-3-|
A |3---3-3---3-3-3-|2---2-2---2-2-2-|0---0-0---x-x-x-|--x-x-x---x-x-x-|
E |x---x-x---x-x-x-|x---x-x---x-x-x-|x---x-x---x-x-x-|--x-x-x---x-x-x-|
Fem:  price I pay
Mal: Oh I never
Fem:  Destiny is calling me
      Open up...
   C                G                Am            F
   d   d u   u d u  d   d u   u d u  d   d u   u d u    u d u   u d u
e |0---0-0---0-0-0-|x---x-x---x-x-x-|0---0-0---0-0-1-|--1-1-1---1-1-1-|
B |1---1-1---1-1-1-|1---1-1---1-1-1-|1---1-1---1-1-1-|--1-1-1---1-1-1-|
G |0---0-0---0-0-0-|0---0-0---0-0-0-|2---2-2---2-2-2-|--2-2-2---2-2-2-|
D |2---2-2---2-2-2-|0---0-0---0-0-0-|2---2-2---2-2-3-|--3-3-3---3-3-3-|
A |3---3-3---3-3-3-|2---2-2---2-2-2-|0---0-0---x-x-x-|--x-x-x---x-x-x-|
E |x---x-x---x-x-x-|x---x-x---x-x-x-|x---x-x---x-x-x-|--x-x-x---x-x-x-|
Fem: my eager eyes
Mal: Oh I never
Fem: I'm Mr. Brightside
Mal:                    Yes I never
Outro

   C                G                Am            F
   d   d u   u d u  d   d u   u d u  d   d u   u d u    u d u d u d u
e |0---0-0---0-0-0-|x---x-x---x-x-x-|0---0-0---0-0-1-|--1-1-1-1-1-1-1-|
B |1---1-1---1-1-1-|1---1-1---1-1-1-|1---1-1---1-1-1-|--1-1-1-1-1-1-1-|
G |0---0-0---0-0-0-|0---0-0---0-0-0-|2---2-2---2-2-2-|--2-2-2-2-2-2-2-|
D |2---2-2---2-2-2-|0---0-0---0-0-0-|2---2-2---2-2-3-|--3-3-3-3-3-3-3-|
A |3---3-3---3-3-3-|2---2-2---2-2-2-|0---0-0---x-x-x-|--x-x-x-x-x-x-x-|
E |x---x-x---x-x-x-|x---x-x---x-x-x-|x---x-x---x-x-x-|--x-x-x-x-x-x-x-|
Fem: Coming out of my cage
     An' I been doin' just fine
     Gotta gotta get be down
     I want it all
   C                G                Am            F
   d     u          d         u d u  d     d   u d u  d     d   u d u
e |0-----0---------|x---------x-x-x-|0-----0---0-0-1-|1-----1---1-1-1-|
B |1-----1---------|1---------1-1-1-|1-----1---1-1-1-|1-----1---1-1-1-|
G |0-----0---------|0---------0-0-0-|2-----2---2-2-2-|2-----2---2-2-2-|
D |2-----2---------|0---------0-0-0-|2-----2---2-2-3-|3-----3---3-3-3-|
A |3-----3---------|2---------2-2-2-|0-----0---x-x-x-|x-----x---x-x-x-|
E |x-----x---------|x---------x-x-x-|x-----x---x-x-x-|x-----x---x-x-x-|
Fem: Started out with a kiss                                         I
     How did it end up like this
     It was only a kiss
   C                G                Am            F
   d           d u  d         u d u  d     d   u d u  d     d   u d u
e |0-----------0-0-|x---------x-x-x-|0-----0---0-0-1-|1-----1---1-1-1-|
B |1-----------1-1-|1---------1-1-1-|1-----1---1-1-1-|1-----1---1-1-1-|
G |0-----------0-0-|0---------0-0-0-|2-----2---2-2-2-|2-----2---2-2-2-|
D |2-----------2-2-|0---------0-0-0-|2-----2---2-2-3-|3-----3---3-3-3-|
A |3-----------3-3-|2---------2-2-2-|0-----0---x-x-x-|x-----x---x-x-x-|
E |x-----------x-x-|x---------x-x-x-|x-----x---x-x-x-|x-----x---x-x-x-|
    never                                                           I
   C                G                Am            F
   d         u d u  d           d u  d         u d u  d     d   u d u
e |0---------0-0-0-|x-----------x-x-|0---------0-0-1-|1-----1---1-1-1-|
B |1---------1-1-1-|1-----------1-1-|1---------1-1-1-|1-----1---1-1-1-|
G |0---------0-0-0-|0-----------0-0-|2---------2-2-2-|2-----2---2-2-2-|
D |2---------2-2-2-|0-----------0-0-|2---------2-2-3-|3-----3---3-3-3-|
A |3---------3-3-3-|2-----------2-2-|0---------0-0-x-|x-----x---x-x-x-|
E |x---------x-x-x-|x-----------x-x-|x---------x-x-x-|x-----x---x-x-x-|
    never                                                           I
   C                G                Am            F
   d         u d u  d         u d u  d           d u  d
e |0---------0-0-0-|x---------x-x-x-|0-----------0-1-|1---------------|
B |1---------1-1-1-|1---------1-1-1-|1-----------1-1-|1---------------|
G |0---------0-0-0-|0---------0-0-0-|2-----------2-2-|2---------------|
D |2---------2-2-2-|0---------0-0-0-|2-----------2-3-|3---------------|
A |3---------3-3-3-|2---------2-2-2-|0-----------x-x-|x---------------|
E |x---------x-x-x-|x---------x-x-x-|x-----------x-x-|x---------------|
    never


            
            
Suggest correction
Creating personal tab
Creating personal tab
You can edit any tab online and save it as your Personal.

You can edit, replace or remove any tab part or add personal notes – all changes will be seen only by you.

Personal tabs can be accessed anytime from any device, even offline.
Learn more »
comments
print report bad tab
guest
You may want to rate the tab now too:
select rating
Wanna post a correction for this tab? Suggest correction