Oops, an error
Loading. Please wait.

Marooned tab

version 1
version 1

Whole song

Interactive

1,360 views 1 this week
no commentswrite comment
1 2 3 4 5
2 more votes to show rating
add to favorites
×
Save as Personal and add changes to this tab that will be seen only by you. Learn more ›
×
You can save this tab as Personal to edit and correct it or add notes. All changes will be seen only by you. Learn more »
launch autoscroll
font size
0
reset
how to read this tab
guitar tuner
edit
Autoscroll
slow
fast
+/-
esc
set tempo
stop
Running Wild
Marooned
Death or Glory

v 1.0 Jan 2008


~ = vibrato or held note
h = hammer on
p = pull off
s = slide
fb =  full bend
hb = half bend
r = release bend
* = artificial harmonic


Marooned, a melodic metal masterpiece, especially the verse riffs are 
very delicate. A good solo delivered by Moti as well.
Corrections, suggestions to beardedattacker@hotmail.com



(00:00) Figure A (with rythm figure A and B)

e:-------------------------------------------------------------------|
B:-------------------------------------------------------------------|
G:o--------2-----4-----6-----4-----2----------------------2-----4----|
D:o--4-4-4---4-4---4-4---4-4---4-4---4-4-4-4-4-0-0--0-0-0---0-0---0--|
A:-------------------------------------------------------------------|
E:-------------------------------------------------------------------|


e:-------------------------------------------------------------------|
B:-------------------------------------------------------------------|
G:---2-----------2-----4-----2--------------------------------------o|
D:-0---0-0-2-2-2---2-2---2-2---2-2----------------------------------o|
A:-------------------------------------------------------------------|
E:-------------------------------------------------------------------|



(00:20) Figure B 

e:-------------------------------------------------------------------|
B:-------------------------------------------------------------------|
G:--4h6p4-------4h6p4-------------------------4p2-------4p2----------|
D:--------4-4-4-------4-4-4-4-4-4-4-4-4-4-4-4-----4-4-4-----4-4-4----|
A:-------------------------------------------------------------------|
E:-------------------------------------------------------------------|


e:-------------------------------------------------------------------|
B:-------------------------------------------------------------------|
G:--2-2-2------------------------------------------------------------|
D:--0-0-0-2-2-2------------------------------------------------------|
A:--------0-0-0------------------------------------------------------|
E:-------------------------------------------------------------------|



(00:25) Figure C

e:-------------------------------------------------------------------|
B:-------------------------------------------------------------------|
G:---4h6p4-------4h6p4-------------------------4p2-------4p2---------|
D:---------4-4-4-------4-4-4-4-4-4-4-4-4-4-4-4-----4-4-4-----4-4-4---|
A:-------------------------------------------------------------------|
E:-------------------------------------------------------------------|


e:-------------------------------------------------------------------|
B:-------------------------------------------------------------------|
G:--------------------9-9-9-9---2p4-------2p4------------------------|
D:--4-4-4-4-4-4-4-4-4-7-7-7-7-------2-2-2-----2-2-2-2-2-2-2-2-2-2-2-2|
A:-------------------------------------------------------------------|
E:-------------------------------------------------------------------|


e:-------------------------------------------------------------------|
B:-------------------------------------------------------------------|
G:--9h11p9-------9h11p9--------2-2-2-4-4-4---4h6-------4h6-----------|
D:---------9-9-9--------9-9-9--0-0-0-2-2-2-------4-4-4-----4-4-4-4-4-|
A:-------------------------------------------------------------------|
E:-------------------------------------------------------------------|


e:-------------------------------------------------------------------|
B:-------------------------------------------------------------------|
G:---------------4p2-------4p2-------------------------9-9-9-9---2p4-|
D:-4-4-4-4-4-4-4-----4-4-4-----4-4-4-4-4-4-4-4-4-4-4-4-7-7-7-7-------|
A:-------------------------------------------------------------------|
E:-------------------------------------------------------------------|


e:-------------------------------------------------------------------|
B:-------------------------------------------------------------------|
G:--------2p4--------------------------9h11p9-------9h11p9-------2-2-|
D:--2-2-2-----2-2-2-2-2-2-2-2-2-2-2-2---------9-9-9--------9-9-9-0-0-|
A:-------------------------------------------------------------------|
E:-------------------------------------------------------------------|


e:-------------------------------------------------------------------|
B:-------------------------------------------------------------------|
G:--2--4-4-4---------------------------------------------------------|
D:--0--2-2-2---------------------------------------------------------|
A:-------------------------------------------------------------------|
E:-------------------------------------------------------------------|



(00:45) Figure D

e:-------------------------------------------------------------------|
B:-------------------------------------------------------------------|
G:o-----------------------------------------------------------------o|
D:o-------------7-2-------------7-2-------------7-2-4-4-4-4-4-4-----o|
A:--2-2-2-2-2-2-5-0-2-2-2-2-2-2-5-0-2-2-2-2-2-2-5-0-------------5-7--|
E:--------------------------------------------------------------3-5--|



(01:25) Figure E

e:-------------------------------------------------------------------|
B:-------------------------------------------------------------------|
G:o-----------------------------------------------------------------o|
D:o---4-------4-4-4-7---7s9----7------7----7-4----7--2--------------o|
A:----2-------2-2-2-5---5s7----5-5----5----5-2----5--0---------------|
E:-------------------------------3-----------------------------------|



(01:45) Figure F

e:-------------------------------------------------------------------|
B:-------------------------------------------------------------------|
G:o------------------------------------------------------------------|
D:o--------2-2-2-------------------------------------------2-2-2-----|
A:---4-4-4-------4-4-4-0-0-0-2-2-2-------0-0-0-0-0-0-4-4-4-------4-4-|
E:--------------------------------2-2-2------------------------------|


e:-------------------------------------------------------------------|
B:-------------------------------------------------------------------|
G:------------------------------------------------------------------o|
D:------------------------------------------------------------------o|
A:--4-0-0-0-2-2-2-0--------------------------------------------------|
E:------------------5-4-2--------------------------------------------|


e:-------------------------------------------------------------------|
B:-------------------------------------------------------------------|
G:o--------2-2-2-------------------------------------------2-2-2-----|
D:o--4-4-4-------4-4-4-0-0-0-2-2-2-------0-0-0-0-0-0-4-4-4-------4-4-|
A:---------------------------------2-2-2-----------------------------|
E:-------------------------------------------------------------------|


e:-------------------------------------------------------------------|
B:-------------------------------------------------------------------|
G:------------------------------------------------------------------o|
D:--4-0-0-0-2-2-2-0-------------------------------------------------o|
A:------------------5-4-2--------------------------------------------|
E:-------------------------------------------------------------------|



(02:05) Figure G (solo Majk Moti) with rythm figure C

e:--------------------------------------10-9-8-----------------10----|
B:--------10----------------------10-----------10-9-6-7--------------|
G:--11-11----11-11-11-9--------------------------------------7----7--|
D:--11------------------11-11-11-----9---------------------7---------|
A:-------------------------------------------------------------------|
E:-------------------------------------------------------------------|


e:----------------------------------|--------------------------------|
B:----------------------------------|--------------------------------|
G:--s6--2h4---4fb-4fb-r4p2h4~~~-----|--------------------------------|
D:----------------------------------|--9fbr--9fbr-11h12p11-----------|
A:----------------------------------|-------------------------4p2p0--|
E:----------------------------------|--------------------------------|


e:-------------------------------------------------------------------|
B:-------------------------------------------------------------------|
G:----------------------------------------------------------14-------|
D:----------------14-14-14-14-14-14-14-14-14-14-14-14-14-16----16~~--|
A:--2p0--------------------------------------------------------------|
E:------4p2ah~~~-----------------------------------------------------|


e:-------------------------------------------------------------------|
B:-------13-14-13---------13-14-13---------13-14-13---------13-14-14-|
G:-15-16----------16-15-16---------16-15-16---------16-15-16---------|
D:-------------------------------------------------------------------|
A:-------------------------------------------------------------------|
E:-------------------------------------------------------------------|


e:---------------------------14--16--17---|-21p17----17----17-19p17--|
B:--17-17fb--17fb-17p14-17fb--------------|-------19-----------------|
G:----------------------------------------|--------------------------|
D:----------------------------------------|-------------16-----------|
A:----------------------------------------|--------------------------|
E:----------------------------------------|--------------------------|


e:--16-17-19p17-21p17-22p17-21p17------------------------------------|
B:--------------------------------19---------------------------------|
G:-----------------------------------18---------14p13----13-14-16-13-|
D:--------------------------------------19------------16-------------|
A:-----------------------------------------21------------------------|
E:-------------------------------------------------------------------|

 
e:-------------------------------------------------17-16--14~~~------|
B:--------14~--14-14h15-14-15-17-14-15-17-17-17-19--------14~~~------|
G:--14-16------------------------------------------------------------|
D:-------------------------------------------------------------------|
A:-------------------------------------------------------------------|
E:-------------------------------------------------------------------|



(02:25) Figure H

e:-------------------------------------------------------------------|
B:-------------------------------------------------------------------|
G:o------------------------------------------------------------------|
D:o--16-16-16-19-16-16-16-16-16-19-16-16-14-14-14-18-14-14-14-14-14--|
A:-------------------------------------------------------------------|
E:-------------------------------------------------------------------|
 |                                                                   |
e:-------------------------------------------------------------------|
B:-------------------------------------------------------------------|
G:---14-14-14-18-14-14-14-14-14-18-14-14-13-13-13-16-13-13-13-13-13--|
D:-------------------------------------------------------------------|
A:-------------------------------------------------------------------|
E:-------------------------------------------------------------------|


e:-------------------------------------------------------------------|
B:-------------------------------------------------------------------|
G:------------------------------------------------------------------o|
D:--18-14-14-12-12-12-16-12-12-12-12-12-16-12-12--11-9--7--9--7--6--o|
A:-------------------------------------------------------------------|
E:-------------------------------------------------------------------|
 |                                                                   |
e:-------------------------------------------------------------------|
B:-------------------------------------------------------------------|
G:--16-13-13-11-11-11-14-11-11-11-11-11-14-11-11--9--7--6--7--6-----o|
D:---------------------------------------------------------------9--o|
A:-------------------------------------------------------------------|
E:-------------------------------------------------------------------|



(04:10) Figure I (with rythm figure D)

e:-------------------------------------------------------------------|
B:-------------------------------------------------------------------|
G:o-----------------------------------------------------------------o|
D:o------4p2p0-------------4p2p0-5p4p2------------------------------o|
A:---2-2-------2-2-5p2-2-2-------------5p4p2p0h2---------------------|
E:-------------------------------------------------------------------|



(04:49) Figure J
                                                         ending
e:-----------------------------------------------------|-------------|
B:-----------------------------------------------------|-------------|
G:o---------------------------------------------------o|-------------|
D:o-----4p2p0-------------4p2p0-5p4p2-----------------o|---4-4-------|
A:--2-2-------2-2-5p2-2-2-------------5p4p0h2----------|---2-2-------|
E:-----------------------------------------------------|-------------|
 |                                                                   |
e:-----------------------------------------------------|-------------|
B:-----------------------------------------------------|-------------|
G:o---------------------------------------------------o|-------------|
D:o-----4p2p0-------------4p2p0-5p4p2-----------------o|---4-4-------|
A:--2-2-------2-2-5p2-2-2-------------5p2p0h2----------|---2-2-------|
E:-----------------------------------------------------|-------------|



Rythm figure A

e:-------------------------------------------------------------------|
B:-------------------------------------------------------------------|
G:------------------------------9-9-9-9------------------------------|
D:--11--------7----9----11------7-7-7-7--7-----7-9-------------------|
A:--9---------5----7----9----------------5-----5-7-------------------|
E:-------------------------------------------------------------------|



Rythm figure B

e:-------------------------------------------------------------------|
B:-------------------------------------------------------------------|
G:----------------------------------9-9-9-9--------------------------|
D:---11---------11--------11--------7-7-7-7--7---------7---------9---|
A:---9--9-9-9---9--9-9-9--9--9-9-9-----------5--5-5-5--5--5-5-5--7---|
E:-------------------------------------------------------------------|


e:-------------------------------------------------------------------|
B:-------------------------------------------------------------------|
G:------------------------------------------------------9-9-9-9------|
D:----------9-----------11---------11---------11--------7-7-7-7--7---|
A:--7-7-7---7--7-7-7----9--9-9-9---9--9-9-9---9--9-9-9-----------5---|
E:-------------------------------------------------------------------|


e:-------------------------------------------------------------------|
B:-------------------------------------------------------------------|
G:-------------------------------------------------------------------|
D---------7---------9---------9p7---7--------------------------------|
A:-5-5-5--5--5-5-5--7--7-7-7------7---7-7----------------------------|
E:-------------------------------------------------------------------|



Rythm figure C

e:-------------------------------------------------------------------|
B:-------------------------------------------------------------------|
G:----------------------------------9-9-9-9--------------------------|
D:---11---------11--------11--------7-7-7-7--7---------7---------9---|
A:---9--9-9-9---9--9-9-9--9--9-9-9-----------5--5-5-5--5--5-5-5--7---|
E:-------------------------------------------------------------------|


e:-------------------------------------------------------------------|
B:-------------------------------------------------------------------|
G:-------------------------------------------------------------------|
D:----------9--------------------------------------------------------|
A:--7-7-7---7--7-7-7-------------------------------------------------|
E:-------------------------------------------------------------------|



Rythm figure D

e:-------------------------------------------------------------------|
B:-------------------------------------------------------------------|
G:-------------------------------------------------------------------|
D:---4----2---------------7---4------4----2----------2----7--2--4----|
A:---2----0--5----4--2----5---2------2----0--5----4--0----5--0--2----|
E:-----------3----2--0-----------------------3----2------------------|


e:-------------------------------------------------------------------|
B:-------------------------------------------------------------------|
G:-------------------------------------------------------------------|
D:---4----2----------2----7--2--4---4----2----------7----6--4--------|
A:---2----0--5----4--0----5--0--2---2----0--5----4--5----4--2--------|
E:-----------3----2-------------------------3----2-------------------|



            
            
Suggest correction
Creating personal tab
Creating personal tab
You can edit any tab online and save it as your Personal.

You can edit, replace or remove any tab part or add personal notes – all changes will be seen only by you.

Personal tabs can be accessed anytime from any device, even offline.
Learn more »
Give kudos to tab author, rate the tab!
1 2 3 4 5
comments
print report bad tab
guest
You may want to rate the tab now too:
select rating
Wanna post a correction for this tab? Suggest correction