Oops, an error
Loading. Please wait.

Fly By Night bass

version 2
version 2

Whole song

Interactive

by Rush
29,923 views 75 this week
3 commentsread comments
1 2 3 4 5
x 12
add to favorites
×
Save as Personal and add changes to this tab that will be seen only by you. Learn more ›
×
You can save this tab as Personal to edit and correct it or add notes. All changes will be seen only by you. Learn more »
launch autoscroll
font size
0
reset
guitar tuner
backing track
0:00
0:00
edit
Autoscroll
slow
fast
+/-
esc
set tempo
stop
Author
Tabbed by: BASSteve

Tuning: EADG

Time signature: 4/4

*My tabs are meant to be read in conjunction with listening to the song.
In other words, there are no specific notations to account for note/rest duration.
However, you will find that I've made an attempt to strategically space the notes
and rests within their respective measures in order to represent the appropriate
durations.



 GUITAR INTRO

   4x                                   2x
G||--------------------------------|| ||--------------------------------||
D||--------------------------------|| ||--------------------------------||
A||--------------------------------|| ||5-------------------------------||
E||--------------------------------|| ||--------------------------------||



|--------------------------------|--------------------------------|
|--------------------------------|----------------------------\---|
|3--------------(2)--------------|2---2---2---1---1-1-1---1-------|
|--------------------------------|--------------------------------|



VERSE (3x with some variation)

|----------------------------5-6-|7---7-4-------------------------|
|0------r--0------r--------------|----------7---------4-----------|
|--------------------------------|------------------------7---5---|
|--------------------------------|--------------------------------|


                 
|--------------------------------|3---r---------------2---2-------|
|--------------------------------|--------------------------------|
|3-----------2-----------2---1---|------------0---------------2---|
|--------------------2-----------|--------------------------------|



CHORUS
 
 “Fly    by    night    away    from    here.”
|--------------------------------|--------------------7---7/--r---|
|r---9---r-------7---r---7---5-5-|5---4---------------------------|
|------------9-------------------|--------7---5-------------------|
|--------------------------------|--------------------------------|



|--------------------------------|----------------9---7-9-7-------|
|r---9---r-------7---7---4---5---|7-------------------------9-7---|
|------------9-------------------|----5---7---------------------9-|
|--------------------------------|--------------------------------|



|--------------------------------|--------------------7-----------|
|----9---r-------7---r---7---5-5-|5---4---------------------------|
|-7----------9-------------------|--------7---5-----------0---2---|
|--------------------------------|--------------------------------|



|----------------4---4-----------|----------------2---2-----------|
|----------------------4---------|----------------------2---------|
|3-----------2-----------2---r---|1-----------0-----------0---r---|
|--------------------------------|--------------------------------|











GUITAR SOLO (play VERSE 4x with variation)







INTERLUDE

 “Start  a  new  chapter,  I  find  what  I’m  after ...”
|--------------------7-----------|--------------------------------|
|------------------------7\------|3-----------------------3-------|
|5-------------------------------|--------------------5-----------|
|--------------------------------|--------------------------------|



|--------------------------------|----7---r---7---7---------------|
|5\----r-------------------------|------------------------3/------|
|------------3/----------5-------|--------------------------------|
|--------------------------------|--------------------------------|



|--------------------------------|--------------------------------|
|7-------------------7---5---r---|3-----------------------3---r---|
|--------------------------------|--------------------5-----------|
|--------------------------------|--------------------------------|



|--------------------------------|--------------------------------|
|5---r---------------------------|--------------------------------|
|------------5\------------------|--------------------------------|
|-------------------------3------|{3}-----------------------------|



|--------------------7-----------|--------------------------------|
|------------------------7\------|3-----------------------3-------|
|5-------------------------------|--------------------5-----------|
|--------------------------------|--------------------------------|



|--------------------------------|---7-r---6-r---5-r---4-r--------|
|5\----r-------------------------|----------------------------5/--|
|------------3/----------5-------|--------------------------------|
|--------------------------------|--------------------------------|



|--------------------------------|--------------------------------|
|7-------------------7---5\------|3-----------------------3-------|
|--------------------------------|--------------------5-----------|
|--------------------------------|--------------------------------|



|--------------------------------|--------------------------------|
|5---r---------------------------|---------------------------17\--|
|------------5\------------------|--------------------------------|
|-------------------------3------|{3}-----------------------------|







|--------------------------------|---------------------------------|
|--------------------------------|---------------------------------|
|3-----------2-------------------|1-----------0-------12--12--10\--|
|--------------------------------|---------------------------------|






  2x
||--------------------------------|--------------------------------||
||--------------------------------|--------------------------------||
||3-----------2-------------------|1-----------0-------0---1---2---||
||--------------------------------|--------------------------------||



|--------------------------------|--------------------------------|
|--------------------------------|--------------------------------|
|5-------------------------------|{5}-----------------------------|
|--------------------------------|--------------------------------|





************************************

r = rest (listen for duration)
/ = slide (low to high)
\ = slide (high to low)
()= note inside parenthesis not plucked or hammered on
{}= note inside pointed parenthesis still ringing from previous measure
||= measure gets repeated (see number of times above measure, e.g. 4x)  

************************************

            
            
Suggest correction
Creating personal tab
Creating personal tab
You can edit any tab online and save it as your Personal.

You can edit, replace or remove any tab part or add personal notes – all changes will be seen only by you.

Personal tabs can be accessed anytime from any device, even offline.
Learn more »
comments
print report bad tab
3 comments total.
0 reply
HawkBassNelson 91 Mar 20, 2010 05:03 PM

Pretty accurate, so 4 stars, but you should have made it more condensed for printing.

0 reply
jtolbirt 10 Oct 30, 2015 01:23 PM

I know it's a 5 1/2 year old comment, but if you hit the print button right above the comments it will print properly...

0 reply
bassjoe72 10 Sep 11, 2011 04:24 PM

He's a tough one to get alright, thanks for the help. How bout YYZ or really ANYTHING else from Rush?

guest
You may want to rate the tab now too:
select rating
Wanna post a correction for this tab? Suggest correction