Oops, an error
Loading. Please wait.

Ghost Of A Chance bass

version 1
version 1

Whole song

Interactive

by Rush
2,426 views 1 this week
2 commentsread comments
1 2 3 4 5
1 last vote to show rating
add to favorites
×
Save as Personal and add changes to this tab that will be seen only by you. Learn more ›
×
You can save this tab as Personal to edit and correct it or add notes. All changes will be seen only by you. Learn more »
launch autoscroll
font size
0
reset
guitar tuner
backing track
0:00
0:00
edit
Autoscroll
slow
fast
+/-
esc
set tempo
stop
Author
Unregistered
Ghost of A Chance       
By: Rush


     e e e     Q e e e e e   +e q e e e e e   Q e e e e e   +e e e e e e e e  
G|---------|---------------|----------------|-------------|------------------|
D|3:---3---|4:-2---0-0-----|------------3---|-2---0-0-4---|----------0---3---|
A|8:-2---2-|4:---2-----0-2-|----2-2-0-2---2-|---2-------2-|----2-0-2---2---2-|
E|---------|---------------|----------------|-------------|------------------|


   q e e e e e e   +e q e e e e e   Q e e e e e   +e e e e s s e e e  
G|---------------|----------------|-------------|--------------------|
D|-2-2---0-0-R---|------------3---|-2---0-0-4---|----------0-0---3---|
A|-----2-------2-|----2-2-0-2---2-|---2-------2-|----2-0-2-----2---2-|
E|---------------|----------------|-------------|--------------------|


   Q e e e e e   +e q e e e e e   Q e e e e e   +e e e e s s e e e  
G|-------------|----------------|-------------|--------------------|
D|-2---0-0-4---|------------3---|-2---0-0-2---|----------0-0---3---|
A|---2-------2-|----2-2-0-2---2-|---2-------2-|----2-0-2-----2---2-|
E|-------------|----------------|-------------|--------------------|


   Q e e e e e   +e q e e e e e   Q e e e e e   +e e e e s s e e e  
G|-------------|----------------|-------------|--------------------|
D|-2---0-0-4---|------------3---|-2---0-0-4---|----------0-0---3---|
A|---2-------2-|----2-2-0-2---2-|---2-------2-|----2-0-2-----2---2-|
E|-------------|----------------|-------------|--------------------|


   Q e e e e e   +e q e e e e e   Q e e e e e   +e q e e e e e   Q e e e e e  
G|-------------|----------------|-------------|----------------|-------------|
D|-2---0-0-4---|------------3---|-2---0-0-4---|--------0---3---|-2---0-0-4---|
A|---2-------2-|----2-2-0-2---2-|---2-------2-|----2-2---2---2-|---2-------2-|
E|-------------|----------------|-------------|----------------|-------------|


   +e e e e e e e e   Q e e e e e   +e e e e e e e e   Q e e e e e  
G|------------------|-------------|------------------|-------------|
D|------R---0---3---|-2---0-0-4---|------R---0---3---|-2---0-0-4---|
A|----2---2---2---2-|---2-------2-|----2---2---2---2-|---2-------2-|
E|------------------|-------------|------------------|-------------|


   +e q e e e e e   e e e e e e e e   +e e e e e e e e   Q e e e e e  
G|----------------|-----------------|------------------|-------------|
D|------------3---|-2-3-2-0-2-0-----|------R---0---3---|-2---0-0-2---|
A|----2-2-0-2---2-|-------------0-2-|----2---2---2---2-|---2-------2-|
E|----------------|-----------------|------------------|-------------|


   +e q e e e e e   Q e e e e e   +e e e e e e e e   e+h e e e   +h e e e e  
G|----------------|-------------|------------------|-----------|------------|
D|------------3---|-2---0-0-4---|------R---0-------|-0-----0-2-|------------|
A|----2-2-0-2---2-|---2-------2-|----2---2---2-0-2-|-----0-----|----4-2-4---|
E|----------------|-------------|------------------|-----------|----------2-|


   +w   +e e e q e e e   e+h e e e   +h e e e e   w   +e e e e e e e e  
G|----|----------------|-----------|------------|---|------------------|
D|----|----------------|-0-----0-2-|------------|---|------4-----------|
A|----|--------0-0-2-4-|-----0-----|----4-2-4-2-|---|--------------4---|
E|----|----2-4---------|-----------|------------|-2-|----2---2-2-2---2-|


   e+h e e e   +h e e e e   +w   +e e e q e e e   e+h e e e   +h e e e e   w  
G|-----------|------------|----|----------------|-----------|------------|---|
D|-0-----0-2-|------------|----|----------------|-0-----0-2-|------------|---|
A|-----0-----|----4-2-4---|----|--------0---2-2-|-----0-----|----4-2-4-2-|---|
E|-----------|----------2-|----|----2-4---2-----|-----------|------------|-2-|


   +e e e q e e e   e+h e e e   +h e e e e   H e e   +e e e e e e e e  
G|----------------|-----------|------------|-------|------------------|
D|----------4---4-|-0---2-4-2-|------------|-------|------4-----------|
A|------0-----4---|-----------|----4-2-4---|---2-4-|----4-------0-2-4-|
E|----2---2-------|-----------|----------2-|-2-----|--------2-4-------|


   e+h e e e   +h e e e e   +h q e e   +e e e q e e e   h e e e e  
G|-----------|------------|----------|----------------|-----------|
D|-0-----0-2-|------------|----------|----------------|-0-0---0-2-|
A|-----0-----|----4-2-4---|----------|--------0-0-----|-----0-----|
E|-----------|----------2-|----2-0-2-|----2-4-----4-2-|-----------|


   +Q e e e e e   e e e e e e e e   e e e q e e e   Q e e e e e  
G|--------------|-----------------|---------------|-------------|
D|----2---------|-------------4---|-----R-----3---|-2---0-0-4---|
A|------4-2-4---|-----------------|---------2---2-|---2-------2-|
E|------------2-|-2-2-2-2-2-2---0-|-2-2---2-------|-------------|


   +e q e s s e e e   Q e e e e e   +e e e e e e e e   Q e e e e e  
G|------------------|-------------|------------------|-------------|
D|--------------3---|-2---0-0-4---|------R---0---3---|-2---0-0-4---|
A|----2-2-0-0-2---2-|---2-------2-|----2---2---2---2-|---2-------2-|
E|------------------|-------------|------------------|-------------|


   +e q e e e e e   Q e e e e e   +e e e e s s e e e   Q e e e e e  
G|----------------|-------------|--------------------|-------------|
D|------------3---|-2---0-0-4---|------R---0-0---3---|-2---0-0-4---|
A|----2-2-0-2---2-|---2-------2-|----2---2-----2---2-|---2-------2-|
E|----------------|-------------|--------------------|-------------|


   +e q e e e e e   Q e e e e e   +e e e e e e e e   q+E s e e e e  
G|----------------|-------------|------------------|-----------6---|
D|------------3---|-2---0-0-4---|------R---0---5-0-|-4-----2-2-----|
A|----2-2-0-2---2-|---2-------2-|----2---2---2-----|-----4-------4-|
E|----------------|-------------|------------------|---------------|


   +e e e e e e e e   Q e e e e e   +e e e e s s e e e   q e e e e e e  
G|------------------|-------------|--------------------|-----------6---|
D|----------2---5---|-4---2-2-4---|----------2-2---5---|-4-4---2-2-----|
A|----4-2-4---4---4-|---4-------4-|----4-2-4-----4---4-|-----4-------4-|
E|------------------|-------------|--------------------|---------------|


   +e e e e e e e e   Q e e e e e   +e e e e e e e e   q E s e e e e  
G|------------------|-------------|------------------|---------------|
D|----------2---5---|-4---2-2-6---|----------2---3---|-2-2---0-0-4---|
A|----4-2-4---4---4-|---4-------4-|----4-2-4---4---2-|-----2-------2-|
E|------------------|-------------|------------------|---------------|


   +e q e e e e e   q e e e e e e   +e e e e s s e e e   q e e e e e e  
G|----------------|---------------|--------------------|---------------|
D|------------3---|-2-2---0-0-4---|----------0-0---3---|-2-2---0-0-4---|
A|----2-2-0-2---2-|-----2-------2-|----2-0-2-----2---2-|-----2-------2-|
E|----------------|---------------|--------------------|---------------|


   +e e e e e e e e   q E s e e e e   +h e e e e   e+h e e e   +h e e e e  
G|------------------|---------------|------------|-----------|------------|
D|----------0---3---|-2-2---0-0-4---|------------|-0-----0-2-|------------|
A|----2-0-2---2---2-|-----2-------2-|----2-2-2-2-|-----0-----|----4-2-4---|
E|------------------|---------------|------------|-----------|----------2-|


   +h+Q e   +e e e q e e e   e+h e e e   +h e e e e   h+Q e   e e e e e e e e  
G|--------|----------------|-----------|------------|-------|-----------------|
D|--------|----------------|-0-----0-2-|------------|-------|-----4-------4---|
A|--------|--------0-0-2-4-|-----0-----|----4-2-4---|-------|---------------4-|
E|------2-|----2-4---------|-----------|----------2-|-2---0-|-2-2---2-2-2-----|


   e+h e e e   +h e e e e   H e e   +e q e e e e e   e+h e e e   +h e e e e  
G|-----------|------------|-------|----------------|-----------|------------|
D|-0-----0-2-|------------|-----4-|----6-6-7-6-4-6-|-0-----0-2-|--------R---|
A|-----0-----|----4-2-4---|-------|----------------|-----0-----|----4-2-----|
E|-----------|----------2-|-2-2---|----------------|-----------|----------2-|


   e+h e e e   +e e e e e e e e   e+h e e e   +h e e e e   q q h   +Q e e e e e  
G|-----------|------------------|-----------|------------|-------|--------------|
D|-----------|----------R-------|-0-----0-2-|------------|-----4-|----------4---|
A|-----------|------0-2---2-4-2-|-----0-----|----4-2-4---|-------|------------4-|
E|-2---0-2-4-|----4-------------|-----------|----------2-|-2-2---|----0-2-2-----|


   e+h e e e   +h e e e e   e+h e e e   e e e e e q e   e+h e e e   +h e e e e  
G|-----------|------------|-----------|---------------|-----------|------------|
D|-0-----0-2-|------------|-----------|---------------|-0-----0-2-|------------|
A|-----0-----|----4-2-4---|-----------|---0-0-----2-4-|-----0-----|----4-2-4---|
E|-----------|----------2-|-2---0-2-4-|-4-----4-2-----|-----------|----------2-|


   e e e q e e e   +e e e e e e e e   q q e e e e   E s e e e e e e  
G|---------------|------------------|-------------|-----------------|
D|---------------|------0-----------|-0-0-0---0-2-|-2-2-2-0---------|
A|-------0-0-2-4-|----4---4-2-0-2-4-|-------0-----|---------4-2-4---|
E|-2-2-4---------|------------------|-------------|---------------2-|


   +e e e e e e e e   e q+s s e e e e   q e e e e e e   +e e E s e e e e  
G|------------------|-----------------|---------------|------------------|
D|------4-------4---|---------4---4---|-0-0-R-0-2-4-2-|----2-2---2-4-6-4-|
A|------------------|---------------4-|---------------|--------4---------|
E|----2---0-2-2---2-|-2-2---2---2-----|---------------|------------------|


   +e q e e e e e   e e e e e e e e   q e e e e e e   e q e e e e e  
G|----------------|-----------------|---------------|---------------|
D|--------4-------|-----------------|-0-0-R-0-2-4-2-|-2-2-2---------|
A|----------------|---0-------0-----|---------------|-------4-2-4---|
E|----2-2---0-0-2-|-4---4-2-4---4-2-|---------------|-------------2-|


   e e e e e e e e   e e e e e e e e   q e e e e e e   +e e e s s e e e e  
G|-----------------|-----------------|---------------|--------------------|
D|-----4---6-4-6-7-|-6-4-6-4-2-4-6-4-|-0-0---0-2-4-2-|----2-2-----2-4-6-4-|
A|-----------------|-----------------|-----0---------|--------2-2---------|
E|-2-2---2---------|-----------------|---------------|--------------------|


   e e e e e e e e   +e e e e e e s E   h+Q e   +h e e e e   +w  
G|-----------------|------------------|-------|------------|----|
D|-4-----4-------4-|----------4-------|-0---2-|------------|----|
A|-----------------|--------------2-4-|-------|----4-2-4---|----|
E|---2-2---0-2-2---|----2-2-2---2-----|-------|----------2-|----|


   +e e e e e e e e   e+h e e e   +Q e e e e e   e e e+h e   e e e e e e e e  
G|------------------|-----------|--------------|-----------|---------8-6-4-6-|
D|------------------|-0-----0-2-|--------------|-----4-----|-4-4-6-4---------|
A|--------0-------4-|-----0-----|----4-4-2-4---|---------4-|-----------------|
E|----2-4---4-2-0---|-----------|------------0-|-2-2-------|-----------------|


   e+h e e e   +h e e e e   +Q e e q e   e q e e q e   e+h e e e   +Q e e e e e  
G|-----------|------------|------------|-------6-----|-----------|--------------|
D|-0-----0-2-|------------|------4-----|-6-----------|-0---2-4-2-|------2-4-6-4-|
A|-----0-----|----4-2-4---|------------|-------------|-----------|----4---------|
E|-----------|----------2-|----2---2-2-|---2-2---2-2-|-----------|--------------|


   +e e e e e e e e   e e e e e e s E   q+E s e e e e   q E s e e e e  
G|------------------|-----------------|---------------|---------------|
D|----------4-------|-----R-----------|-0-----0-2-4-2-|-2-2-2---------|
A|--------------4---|-4---------------|-----0---------|-------4-2-4---|
E|----2-2-2---2---2-|---2---2-2-2-2-2-|---------------|-------------2-|


   +e e e e e e e e   +e e e e e q s s   q+E s e e e e   +q E s e e e e  
G|------------------|------------------|---------------|----------------|
D|--------------4---|------------------|-0-----0-2-4-2-|----2-2---------|
A|------------4-----|--------------0-4-|-----0---------|--------4-2-4---|
E|----2-2-0-2-----2-|----2-2-2-2-2-----|---------------|--------------2-|


   e e e e e e e e   e e e e e e e e   q E s e e e e   Q e e e e e   e Q h  
G|-----------------|-----------------|---------------|-------------|-------|
D|-----------------|-----------------|-0-0---0-2-4-2-|-2---2-4-6-7-|-6-4---|
A|-------0-0-0-----|-------0---0-0-0-|-----0---------|---4---------|-------|
E|-2-2-4-------4-2-|-0-2-4---4-------|---------------|-------------|-----2-|



************************************

| s  Slap
| R  rest

************************************

            
            
Suggest correction
Creating personal tab
Creating personal tab
You can edit any tab online and save it as your Personal.

You can edit, replace or remove any tab part or add personal notes – all changes will be seen only by you.

Personal tabs can be accessed anytime from any device, even offline.
Learn more »
Give kudos to tab author, rate the tab!
1 2 3 4 5
comments
print report bad tab
2 comments total.
0 reply
mrkeithrichard 10 May 25, 2014 06:50 AM

pure shit.....burn your bass please...you suck at this

0 reply
mrkeithrichard 10 May 25, 2014 06:50 AM

didn't like this contribution

guest
Wanna post a correction for this tab? Suggest correction