Oops, an error
Loading. Please wait.

Here Again tab

version 2
version 2

Whole song

Interactive

by Rush
8,213 views 15 this week
3 commentsread comments
1 2 3 4 5
x 8
add to favorites
×
Save as Personal and add changes to this tab that will be seen only by you. Learn more ›
×
You can save this tab as Personal to edit and correct it or add notes. All changes will be seen only by you. Learn more »
launch autoscroll
font size
0
reset
how to read this tab
guitar tuner
edit
Autoscroll
slow
fast
+/-
esc
set tempo
stop
Author
Difficulty
-----------------------------------------------------------------------------
                              Here Again - Rush
                                  Rush-1974
                  Words and Music Alex Lifeson and Geddy Lee
-----------------------------------------------------------------------------

This is based on the Guitar pro version I did earlier this month.
On the album, Lifeson records three tracks of guitars,which I scored on the Guitar pro version.
In this tab, I combined the three so that this can be preformed by one guitar in a live situation.
I have thoughincluded the backing track for the solos in the case of two guitars.

Tabbed by: Duane Baldwin
Email:duaneandjulie@gmail.com
Tuning: Standard

Intro: Overdriven with slight chorus
e|------2--2--2--2--|------------------5--5--|--5--5---------------------|
B|------3--3--3--3--|------------------5--5--|--5--5---------------------|
G|--4---4--4--4--4--|------------------2--2--|--2--2---------------------|
D|--4---4--4--4--4--|--2--0------------2--2--|--2--2------------0--2-----|
A|--2---2--2--2--2--|--------4--2--0---0--0--|--0--0---0--2--4-----------|
E|------------------|------------------------|------------------------0--|

e|--0------------------------|------2-----2-----2--2---|
B|--0------------------------|------3--2--2--2--3--2---|
G|--1------------------------|------4--2--2--2--4--2---|
D|--2-----2--2---------------|--4---4--2--2--2--4--2---|
A|--2-----2--2----0--2/4--0--|--2---2-----------2------|
E|--0--0--0--0---------------|-------------------------|

e|------2--2--2--2--|------------------5--5--|--5--5---------------------|
B|------3--3--3--3--|------------------5--5--|--5--5---------------------|
G|--4---4--4--4--4--|------------------2--2--|--2--2---------------------|
D|--4---4--4--4--4--|--2--0------------2--2--|--2--2------------0--2-----|
A|--2---2--2--2--2--|--------4--2--0---0--0--|--0--0---0--2--4-----------|
E|------------------|------------------------|------------------------0--|

e|--0------------------------|--2-----2--------2--------|
B|--0------------------------|--3-----3--------3----3---|
G|--1------------------------|--4-----4--------4----4---|
D|--2-----2--2---------------|--4-----4--------4----4---|
A|--2-----2--2----0--2/4--0--|--2--0--2--0--0--2--0h2---|
E|--0--0--0--0---------------|--------------------------|

1st Verse
e|--2--2--2--------0---0------------------------------2---------2---------2--|
B|--3--3--3--------0---0--------------------------3---3---------3---------3--|
G|--4--4--4--------1---1---2--2-------------------4---4---------4---2--2--4--|
D|--4--4--4------------2---2--2--------0------0---4---4---2--2--4---2--2--4--|
A|---------------------2---0--0------2------0-------------0--0--2---0--0--2--|
E|-------------0-------0----------3-------2----------------------------------|

e|-------2--2--2-------0--0--0---5--5--5-------------------------------|
B|----3--3--3--3-------0--0--0---5--5--5-------------------------------|
G|----4--4--4--4-------1--1--1---6--6--6----------0-------------0------|
D|----4--4--4--4-------2--2--2---7--7--7-------------0-------------0---|
A|--0h2----------------2--2--2---7--7--7------2--------------0---------|
E|-----------------0---0--0--0-------------3--------------2------------|

e|--2--------2--------2----------2--2--2--2-------0--0--0--0---5--5--5--5---|
B|--3--------3--------3-------3--3--3--3--3-------0--0--0--0---5--5--5--5---|
G|--4--------4--------4-------4--4--4--4--4-------1--1--1--1---6--6--6--6---|
D|--4--2--2--4--2--2--4-------4--4--4--4--4-------2--2--2--2---7--7--7--7---|
A|-----0--0--2--0--0--2---0h1h2-------------------2--2--2------7--7--7--7---|
E|--------------------------------------------0---0--0--0-------------------|

e|------------------------------2--------2--------2----2--2--2--2--2--2--2--|
B|---------------------------3--3--------3--------3----3--3--3--3--3--3--3--|
G|--------0----------0-------4--4--2--2--4--2--2--4----4--4--4--4--4--4--4--|
D|----------0-----------0----4--4--2--2--4--2--2--4----4--4--4--4--4--4--4--|
A|-----2----------0----------------0--0--2--0--0--2--0h2--------------------|
E|--3----------2------------------------------------------------------------|

e|-----0--0--0--0--0--0---5--5--5--5--------------------------2---|
B|-----0--0--0--0--0--0---5--5--5--5-----------------------3--3---|
G|-----1--1--1--1--1--1---6--6--6--6---------0---------0---4--4---|
D|-----2--2--2--2--2--2---7--7--7--7-----------------------4--4---|
A|-----2--2--2--2--2--2---7--7--7--7------2--------0--------------|
E|--0--0--0--0--0--0--0----------------3--------2-----------------|

e|--------2--------2---|
B|--------3--------3---|
G|--------4--------4---|
D|--------4--------4---|
A|--0--0--2--0--0--2---|
E|---------------------|

Intro Reprise
e|--------2--2--2--2--|------------------5--5--|--5--5---------------------|
B|--------3--3--3--3--|------------------5--5--|--5--5---------------------|
G|----4---4--4--4--4--|------------------2--2--|--2--2---------------------|
D|----4---4--4--4--4--|--2--0------------2--2--|--2--2------------0--2-----|
A|--0h2---2--2--2--2--|--------4--2--0---0--0--|--0--0---0--2--4-----------|
E|--------------------|------------------------|------------------------0--|

e|--0------------------------|------2-----2-----2--2---|
B|--0------------------------|------3--2--2--2--3--2---|
G|--1------------------------|------4--2--2--2--4--2---|
D|--2-----2--2---------------|--4---4--2--2--2--4--2---|
A|--2-----2--2----0--2/4--0--|--2---2-----------2------|
E|--0--0--0--0---------------|-------------------------|

e|------2--2--2--2--|------------------5--5--|--5--5---------------------|
B|------3--3--3--3--|------------------5--5--|--5--5---------------------|
G|--4---4--4--4--4--|------------------2--2--|--2--2---------------------|
D|--4---4--4--4--4--|--2--0------------2--2--|--2--2------------0--2-----|
A|--2---2--2--2--2--|--------4--2--0---0--0--|--0--0---0--2--4-----------|
E|------------------|------------------------|------------------------0--|

e|--0------------------------|--2---------------------|
B|--0------------------------|--3----3---3----3---3---|
G|--1------------------------|--4----4---4----4---4---|
D|--2-----2--2---------------|--4----4--------4-------|
A|--2-----2--2----0--2/4--0--|--2----2--------2-------|
E|--0--0--0--0---------------|------------------------|

2nd Verse
e|---------------2-----------2-------------------------0------------|
B|-------3----------------3------3------------------0-----0---------|
G|-------4---4------4--4------------4------1-----1-----------1---1--|
D|----4--4-----------------------------4---2--2------------------2--|
A|--0h2--2---------------------------------2---------------------2--|
E|-----------------------------------------0---------------------0--|

e|-----------0----------------------5-------------------3------------3---|
B|--------0-----0----------------5-----5---------------------------------|
G|-----1-----------1----------6-----------6----------0------------0------|
D|--2-------------------7--7----------------------0------------0---------|
A|----------------------7------------------------------------------------|
E|----------------------5----------------------3------------2------------|

e|--------------------2--------------------------------------------2---------|
B|-------------3---------3--2-------3-----------3----3----------3-----3------|
G|----4-----4-----4------------4----4--------4-------4-------4-----------4---|
D|----4--4--------------------------4-----4----------4----4-----------------4|
A|--0h2---------------------------0h2--2-----------0h2-2---------------------|
E|---------------------------------------------------------------------------|

e|-----------0------------------0----------------------5------------------3--|
B|--------------0------------0-----0----------------------5------------3-----|
G|--------1--------1------1-----------1-------------6--------6------0--------|
D|-----2---------------------------------2----7--7---------------------------|
A|--2-----------------------------------------7------------------------------|
E|--0------------------0----------------------5------------------3-----------|

e|------------3------------------------------------------------------------|
B|---------3------------------3---------------------------3--------3-------|
G|------0------------------4--4--4--------4---------4-----4-----4----------|
D|-------------------4--4-----------------4---------4-----4--4-------------|
A|-----------------0h2--------------0--0------0--0------0h2------------2---|
E|--2----------------------------------------------------------------------|

e|-------------2----------------0-------------------0------------------5--5--|
B|----3-----------3----------0-----0-------------0-----0---------------5--5--|
G|----4-----4-------------1-----------1-------1-----------1---6-----6--6--6--|
D|----4--4----------------------------------------------------7--7-----------|
A|--0h2---------------2---------------------------------------7--------------|
E|--------------------0-------------------0-------------------5--------------|

e|------------3---------------3-------------------------------------|
B|---------3---------------3-------3--------3-----------------3-----|
G|------0---------------0----------4-----4-----4-----------4-----4--|
D|---------------------------------4--4-----------------4-----------|
A|------------------0------------0h2---------------0h2--------------|
E|--3------------2--------------------------------------------------|

e|---------------------------------------------------------------|
B|--------------3-------------------3---------------0------------|
G|-----------4------4------------4-----4---------1-----1---------|
D|----4---4---------------4---4------------2--2-----------2------|
A|--0h2-----------------0h2----------------2-----------------2---|
E|-----------------------------------------0---------------------|

e|------------------------5--------5-------------------------------------|
B|-----------0------------5-----------5---------------3------------3-----|
G|--------1-----1---------6-----6--------6---------0-----0------0-----0--|
D|--2--2-----------2------7--7--------------7----------------------------|
A|--2-----------------2---7----------------------------------------------|
E|--0---------------------5---------------------3------------2-----------|

e|---------------------------------------------------------------------------|
B|---------------------------------3--3--3--3--3--3--3--3--3--3--3--3--3--3--|
G|------3-------3-------3-------3--4--4--4--4--4--4--4--4--4--4--4--4--4--4--|
D|--4---4---4---4---4---4---4---4--4--4--4--4--4--4--4--4--4--4--4--4--4--4--|
A|--2-------2-------2-------2------2--2--2--2--2--2--2--2--2--2--2--2--2--2--|
E|---------------------------------------------------------------------------|

Chorus
e|--0---2--2--2--3--2--3--2------------------------------------------------|
B|--0---3--3--3--3--3--3--3------------3--2--------------------1-----------|
G|--1---2--2--2--2--2--2--2---2--2--2--2--2-----------------------0--------|
D|--2---0--0--0--0--0--0--0---2--2--2--4--2----------------2------------0--|
A|----------------------------0--0--0--0--0---0--2--0--3-------------2-----|
E|-------------------------------------------------------------------------|

e|---------3--3--3--3---9/15--15-15-15-15-15-15-15-15-15-15-15-15\-----|
B|---------3--3--3--3---9/15--15-15-15-15-15-15-15-15-15-15-15-15\-----|
G|-----2---0--0--0--0---------12-12-12-12-12-12-12-12-12-12-12-12\-----|
D|--2------0------------------12-12-12-12-12-12-12-12-12-12-12-12\-----|
A|--0------2-----------------------------------------------------------|
E|---------3-----------------------------------------------------------|

e|--2--2--2--3--2--3--2----------------------------------------------------3-|
B|--3--3--3--3--3--3--3-----------3--2------------------1------------------3-|
G|--2--2--2--2--2--2--2--2--2--2--2--2---------------------0-----0------2--0-|
D|--0--0--0--0--0--0--0--2--2--2--4--2--------------2----------------2-----0-|
A|-----------------------0--0--0--0--0--0--2--0--3------------2------0-----2-|
E|-------------------------------------------------------------------------3-|

Solo Backing
e|---------------------2--------------------2------------------0--------|
B|------------------3-----3-----3--------3-----3------------0-----0-----|
G|--2------4-----4--------------4-----4-----------4------1-----------1--|
D|--2------4--4-----------------4--4------------------2-----------------|
A|--0---0h-2------------------0h2---------------------2-----------------|
E|----------------------------------------------------0-----------------|

e|----------0-----------------5---------------------3-------------3-------|
B|-------0-----0-----------5-----5----------------------------------------|
G|-----1----------1--6--6-----------6-----------0-------------0-----------|
D|--2----------------7-----------------------0-------------0--------------|
A|--2----------------7----------------------------------------------------|
E|--1----------------5-------------------3--------------2-----------------|

e|----------------------------------------2------------------2------|
B|-------3--3--3-----------------------3-----3------------3-----3---|
G|----4--4--4--4--2--4--2--4----4---4--------------4---4------------|
D|----4--4--4--4--2--4--2--4----4------------------4----------------|
A|--0h2--2--2--2--0--2--0--2--0h2----------------0h2----------------|
E|------------------------------------------------------------------|

e|-----------0------------------0-------------------5------------------3--|
B|--------0-----0------------0-----0-------------5-----5------------------|
G|-----1-----------1------1-----------1---6---6-----------6---------0-----|
D|--2-----------------2-------------------7----------------------0--------|
A|--2-----------------2-------------------7-------------------------------|
E|--0-----------------0-------------------5-------------------3-----------|

e|-------------3----------------------------------------2-----------------2--|
B|----------------------3--3-----------------3-------------3-----3-----------|
G|---------0---------4--4--4--2--4--2--4-----4-------4-----------4-----4-----|
D|------0------------4--4--4--2--4--2--4-----4----4--------------4--4--------|
A|-----------------0h2--2--2--0--2--0--2---0h2-2---------------0h2-----------|
E|--2------------------------------------------------------------------------|

e|------------------0------------------0-----------------5--------------3--|
B|--3------------------0------------------0-----------------5--------------|
G|---------------1-----------------1---------6--------6--------------0-----|
D|------------2-----------------2------------7-----7--------------0--------|
A|---------2-----------------2---------------7--7--------------------------|
E|------0-----------------0------------------5-----------------3-----------|

e|----------------2-----2--------------------------2--------------------2----|
B|-------------3--3--3--3----3----3----3--------3-----3-----3--------3-----3-|
G|--------0----4--4--4--4----4----4----4-----4-----------4--4-----4----------|
D|-----0-------4--4--4--4----4----4----4--4-----------------4--4-------------|
A|-----------0h2--2--2--2--0h2--0h2--0h2--------------------2----------------|
E|--2------------------------------------------------------------------------|

e|-----------------0--------------------0--------------------5---------|
B|--------------0-----0--------------0-----0--------------5-----5------|
G|--4--------1-----------1--------1-----------1--6-----6-----------6---|
D|-----2--2-----------------2--2-----------------7--7------------------|
A|-----2--------------------2--------------------7---------------------|
E|-----0--------------------0--------------------5---------------------|

e|--------------3---------------3-------------------------------------------|
B|-----------------------------------3--3--3--3-----------------------------|
G|----------0---------------0--------4--4--4--4--2--2--2--2--2--2--2--2--2--|
D|------0---------------0------------4--4--4--4--2--2--2--2--2--2--2--2--2--|
A|---------------------------------0h2--2--2--2--0--0--0--0--0--0--0--0--0--|
E|--3---------------2-------------------------------------------------------|

e|-------------------------2--------------------2--------------------0-------|
B|-------------3--------3-----3-----3--------3-----3--------------0-----0----|
G|--2--2--2----4-----4-----------4--4-----4-----------4--------1-----------1-|
D|--2--2--2----4--4-----------------4--4-----------------2--2----------------|
A|--0--0--0--0h2--------------------2--------------------2-------------------|
E|-------------------------------------------------------0-------------------|

e|--------------0--------------------5-----------------3-----------3--------|
B|-----------0-----0--------------5-----5-----------------------------3--3--|
G|--------1-----------1--6-----6-----------6--------0-----------0-----4--4--|
D|--2--2-----------------7--7--------------------0-----------0--------4--4--|
A|--2--------------------7--------------------------------------------2--2--|
E|--0--------------------5--------------------3-----------2-----------------|

e|-----------------------------------0--0--0--0--0--5--5-----------3---|
B|--3--3--3--3--------3--3--3--3--3--0--0--0--0--0--5--5---------------|
G|--4--4--4--4--2--2--4--4--4--4--4--1--1--1--1--1--6--6--------0------|
D|--4--4--4--4--2--2--4--4--4--4--4--2--2--2--2--2--7--7-----0---------|
A|--2--2--2--2--0--0--2--2--2--2--2--2--2--2--2--2--7--7---------------|
E|-----------------------------------0--0--0--0--0--5--5--3------------|

e|-----------3---------------------------------------------------------------|
B|----------------3--3--3--3--3--3--3--3--3--3--3--3--3--3--3--3--3--3--3----|
G|--------0-------4--4--4--4--4--4--4--4--4--4--4--4--4--4--4--4--4--4--4----|
D|-----0----------4--4--4--4--4--4--4--4--4--4--4--4--4--4--4--4--4--4--4----|
A|--------------0h2--2--2--2--2--2--2--2--2--2--2--2--2--2--2--2--2--2--2----|
E|--2------------------------------------------------------------------------|

Chorus
e|-----2--2--2--3--2--3--2------------------------------------------------|
B|-----3--3--3--3--3--3--3------------3--2--------------------1-----------|
G|-----2--2--2--2--2--2--2---2--2--2--2--2-----------------------0--------|
D|-----0--0--0--0--0--0--0---2--2--2--4--2----------------2------------0--|
A|---------------------------0--0--0--0--0---0--2--0--3-------------2-----|
E|------------------------------------------------------------------------|

e|---------3--3--3--3---9/15--15-15-15-15-15-15-15-15-15-15-15-15\-----|
B|---------3--3--3--3---9/15--15-15-15-15-15-15-15-15-15-15-15-15\-----|
G|-----2---0--0--0--0---------12-12-12-12-12-12-12-12-12-12-12-12\-----|
D|--2------0------------------12-12-12-12-12-12-12-12-12-12-12-12\-----|
A|--0------2-----------------------------------------------------------|
E|---------3-----------------------------------------------------------|

e|--2--2--2--3--2--3--2------------------------------------------------------|
B|--3--3--3--3--3--3--3-----------3--2------------------1--------------------|
G|--2--2--2--2--2--2--2--2--2--2--2--2---------------------0-----0------2----|
D|--0--0--0--0--0--0--0--2--2--2--4--2--------------2----------------2-------|
A|-----------------------0--0--0--0--0--0--2--0--3------------2------0-------|
E|---------------------------------------------------------------------------|

e|--3--3--9/15--15-----|
B|--3--3--9/15--15-----|
G|--0--0--------12-----|
D|--0-----------12-----|
A|--2------------------|
E|--3------------------|

2nd Solo Backing
e|--3--3--3--3--3--3--3--3--3--3--3--3--3--3--2--2--2--3--2--3--2----------|
B|--3--3--3--3--3--3--3--3--3--3--3--3--3--3--3--3--3--3--3--3--3--2--2----|
G|--0--0--0--0--0--0--0--0--0--0--0--0--0--0--2--2--2--2--2--2--2--2--2----|
D|--0--0--0--0--0--0--0--0--0--0--0--0--0--0--0--0--0--0--0--0--0--0--0----|
A|--2--2--2--2--2--2--2--2--2--2--2--2--2--2-------------------------------|
E|--3--3--3--3--3--3--3--3--3--3--3--3--3--3-------------------------------|

e|--------------------------------------------3----|
B|-----3--2-----------------1-----------------3----|
G|--2--2--2--------------------0--4--4--2--2--0----|
D|--2--4--2--------------2--------4--4--2--2--0----|
A|--0--0--0--0--2--0--3-----------2--2--0--0--2----|
E|--------------------------------------------3----|

Main Solo
e|---------------------------------------------------------------------------|
B|---------------------------------------------------------------------------|
G|---------------------------------------------------------------------------|
D|------------------------------------------------------5--4--0--------------|
A|--0--2--2/7-----7--5--7/9\7---7/9\7---7h9p7-5\(2)--0------------2--0--0--0-|
E|-------------0-------------------------------------------------------------|

e|---------------------------------------------------------------------------|
B|---------------------------------------------------------10b-10b-10b-10br--|
G|-------7~~-----7h9p7--9br--7--9br--7--9--7-----7h9p7--9b-------------------|
D|--6/9-------9-------------------------------9------------------------------|
A|---------------------------------------------------------------------------|
E|---------------------------------------------------------------------------|

e|------------------------------------------------------------------------|
B|--9--7-----------------------------------------------10--12--13b--13b---|
G|--------9--7--9br-7-9-7-----7h9p7--------7--9--9/11---------------------|
D|-------------------------9---------7--9---------------------------------|
A|------------------------------------------------------------------------|
E|------------------------------------------------------------------------|

e|----------10--12--12br--10------12p10------10--------------------------|
B|--10--12--------------------12---------12------12---------10--12--13b--|
G|---------------------------------------------------9--11---------------|
D|-----------------------------------------------------------------------|
A|-----------------------------------------------------------------------|
E|-----------------------------------------------------------------------|

e|-----------------------------------------------------------------------|
B|------12--10~~---------------------------------------------------------|
G|--11-------------------(7)--9b--9pb--9pb--9pb--9pbr--9--9--7--10p7-----|
D|-----------------7--9-----------------------------------------------9--|
A|-----------------------------------------------------------------------|
E|-----------------------------------------------------------------------|

e|------------------------------------------------------------------------|
B|------------------------------------------------------------------------|
G|--10p9p7-----10p9p7-----10--9--7-------------------------------7--------|
D|----------9----------9------------9p7-----7--9br--9p7-----7h9-----9-----|
A|---------------------------------------9---------------9----------------|
E|------------------------------------------------------------------------|

e|---------------------------------------------------17-------17-------17---|
B|------------------15--------------15--17--15--17b------17b------17b-------|
G|----------14--16------16--16--16------------------------------------------|
D|--14--16------------------------------------------------------------------|
A|--------------------------------------------------------------------------|
E|--------------------------------------------------------------------------|

e|-------17-------17--------------------------------17b--17b--17--17b--17---|
B|--17b------17b------17br--17--15--17--15----------------------------------|
G|------------------------------------------16--16--------------------------|
D|--------------------------------------------------------------------------|
A|--------------------------------------------------------------------------|
E|--------------------------------------------------------------------------|

e|--17b--17b--17--14h17p14--12----------14b--14b--14b--14--14br--14------12--|
B|------------------------------15--15-------------------------------15------|
G|---------------------------------------------------------------------------|
D|---------------------------------------------------------------------------|
A|---------------------------------------------------------------------------|
E|---------------------------------------------------------------------------|

e|---------------------------------------------------------------------17---|
B|--15--12--------------17br--15--17--15--------------17--15--17--17b-------|
G|------------------14--------------------16--14--16------------------------|
D|----------14--16----------------------------------------------------------|
A|--------------------------------------------------------------------------|
E|--------------------------------------------------------------------------|

e|-------17--17-------17--17-------17--17-------17--17-------17--17--------|
B|--17b----------17b----------17b----------17b----------17b----------17b---|
G|-------------------------------------------------------------------------|
D|-------------------------------------------------------------------------|
A|-------------------------------------------------------------------------|
E|-------------------------------------------------------------------------|


e|--17--17-------------------------------------------------------------------|
B|----------17b--15--17--15----------15--19b------15--17--15----------15b--12|
G|---------------------------16--16-----------16--------------14--16---------|
D|---------------------------------------------------------------------------|
A|---------------------------------------------------------------------------|
E|---------------------------------------------------------------------------|

e|----------------------------------------------------------------------------|
B|--14--15--14--15--14--15--14--12--14--15--14--12--14--15--14--12--14--15----|
G|----------------------------------------------------------------------------|
D|----------------------------------------------------------------------------|
A|----------------------------------------------------------------------------|
E|----------------------------------------------------------------------------|

e|--------------------------------------------------------------------------|
B|--14--15--14--12----------------------------------------------------------|
G|------------------14--13--14--13--14--13--14--13--14b--14pb--14pb--14pb---|
D|--------------------------------------------------------------------------|
A|--------------------------------------------------------------------------|
E|--------------------------------------------------------------------------|

e|---------------------------------------------------------------------------|
B|---------------------------------------------------------------------------|
G|--14pb--14pb--14pb--14b-------7--9p7-----7--9--9br--7--------7--10p9p7-----|
D|-------------------------7h9----------9----------------9--9-------------9--|
A|---------------------------------------------------------------------------|
E|---------------------------------------------------------------------------|

e|---------------------------------------------------------------------------|
B|---------------------------------------------------------------------------|
G|--10p9p7-----7--9--10p9p7--------------------------------------------------|
D|----------9----------------9--8--7-----------------------------------------|
A|------------------------------------9--8--7--5--7--5----------7p5-----7--9-|
E|------------------------------------------------------7--5/7-------7-------|

e|---------------------------------------------------------------------------|
B|---------------------------------------------10------10--12--12br--10--12--|
G|-----------7--9b--9pbr--7--9--------7--9/11------11------------------------|
D|--7--8--9---------------------9--9-----------------------------------------|
A|---------------------------------------------------------------------------|
E|---------------------------------------------------------------------------|

e|------10--12--10--12b--12pb--12pb--12pb--12pb--12pb--12pb--12pb--12pbr--12-|
B|--12-----------------------------------------------------------------------|
G|---------------------------------------------------------------------------|
D|---------------------------------------------------------------------------|
A|---------------------------------------------------------------------------|
E|---------------------------------------------------------------------------|

e|--10----------------|
B|------12b--10-------|
G|---------------11---|
D|--------------------|
A|--------------------|
E|--------------------|

End Solo
e|----------------------------------------------12b--12b--12pbr--12p10------|
B|---------------------------10--10--10h12--10--------------------------12--|
G|--------7--9--7--9b--7/11-------------------------------------------------|
D|--7--9--------------------------------------------------------------------|
A|--------------------------------------------------------------------------|
E|--------------------------------------------------------------------------|

e|--10--------------------------------------------------|
B|------12--10------------------------------------------|
G|--------------11--7--------7--9b--9pbr--7-------------|
D|---------------------7--9------------------9--7-------|
A|-------------------------------------------------10---|
E|------------------------------------------------------|

************************************
| /   slide up
| \   slide down
| h   hammer-on
| p   pull-off
| ~   vibrato
| +   harmonic
| x   Mute note
| b   Bend
| pb  Pre-bend
| br  Bend release
| pbr Pre-bend release
| brb Bend release bend
************************************
Intro
Bm   N.C.  A   N. C.   E   N. C.  Bm  A6  Bm  A6   Bm   A6   Bm
Bm   N.C.  A   N. C.   E   N. C.  Bm  A6  Bm  A6   Bm   A6   Bm

1st Verse
                           E
I said I played this song
                      A
so many times before

         G       G/F# A Bm       A   Bm   A  Bm
that the melody keeps repeating

                  E
growing new ideas,

                          A
flowing chords and notes

       G        G/F# Bm         A   Bm   A   Bm
like a mountain river bleeding.

                           E
Well, I say as I look back,

                              A
And all the thoughts I've had,

     G       G/F#       Bm            A   Bm   A   Bm
They reflect just what I'm learning.

                                    E
Yes, you know that the hardest part,

                                  A
Yes, I say it is to stay on top,

            G     G/F#    Bm         A    Bm    A   Bm
On top of a world forever churning.



Intro Reprise
Bm   N.C.  A   N. C.   E   N. C.  Bm  A6  Bm  A6   Bm   A6   Bm
Bm   N.C.  A   N. C.   E   N. C.  Bm  A6  Bm  A6   Bm   A6   Bm

2nd Verse
                             E
Well, you say you can laugh,

                                        A
But I can see that your eyes are glass.

                  G
Well, do you see, can't you see,

G/F#                     Bm       A    Bm    A    Bm
can't you see, what I'm feeling?

                                E
Yes, I've seen your face before.

                             A
Why, I've seen it everywhere,

              G    G/F#          Bm         A    Bm    A    Bm
Showing up to me without a scent revealing.

              E
Well, I said will it ever change?

                                A
Oh Lord, Will it stay the same?

                   G    G/F#        Bm      A   Bm   A   Bm
I'd surely like to know before it's over.

                            E
Well, I said I played some.

                        A
I said it won't be long,




               G      G/F#             Bm     G
Won't be long before I stop and play it over.


Chorus

D                 Dsus  D     A          Bm7  A  N.C. C
Oh, oh I've, I've seen your face before.

                  C/B        A       G
Is it ever gonna, ever gonna change again?

D                 Dsus     D     A            Bm7  A  N.C. C
Oh, oh I've, I've been in one place too long.

                  C/B        A       G    A
Is it ever gonna, ever gonna change again oh oh

Solo

Bm   E   A  G  G/F#  Bm  A  Bm  A  Bm  A  Bm

Bm   E   A  G  G/F#  Bm  A  Bm  A  Bm  A  Bm

Bm   E   A  G  G/F#  Bm  A  Bm  A  Bm  A  Bm

Bm   E   A  G  G/F#  Bm  A  Bm  A  Bm  A  Bm

Bm   E   A  G  G/F#  Bm  A  Bm  A  Bm  A  Bm

Bm   E   A  G  G/F#  Bm  A  Bm  A  Bm  A  Bm

Chorus

D                 Dsus  D     A          Bm7  A  N.C. C
Oh, oh I've, I've seen your face before.

                  C/B        A       G
Is it ever gonna, ever gonna change again?

D                 Dsus     D     A            Bm7  A  N.C. C
Oh, oh I've, I've been in one place too long.

                  C/B        A       G
Is it ever gonna, ever gonna change again

Outro

D    Dsus   D   A    Bm7   A    N. C     C     C/B     A      G

            
            
Suggest correction
Creating personal tab
Creating personal tab
You can edit any tab online and save it as your Personal.

You can edit, replace or remove any tab part or add personal notes – all changes will be seen only by you.

Personal tabs can be accessed anytime from any device, even offline.
Learn more »
comments
print report bad tab
3 comments total.
0 reply
CinderellaFan14 261 Jun 05, 2012 12:05 PM

Man, this is one incredible tab for an awesome song! Very thorough, even has the chords for the song at the bottom! You thought of everything, man! Flawless dude, much appreciated! 5 STARS!

0 reply
cally1nz 10 Sep 22, 2012 02:20 PM

Very good! Must have taken you ages to do, well done.

0 reply
TIBOR SZENDREI 10 Nov 06, 2016 04:52 PM

WOW.....nICE

guest
You may want to rate the tab now too:
select rating
Wanna post a correction for this tab? Suggest correction