Oops, an error
Loading. Please wait.

Lakeside Park bass

version 2
version 2

Whole song

Interactive

by Rush
522 views 1 this week
no commentswrite comment
1 2 3 4 5
3 more votes to show rating
add to favorites
×
Save as Personal and add changes to this tab that will be seen only by you. Learn more ›
×
You can save this tab as Personal to edit and correct it or add notes. All changes will be seen only by you. Learn more »
launch autoscroll
font size
0
reset
guitar tuner
edit
Autoscroll
slow
fast
+/-
esc
set tempo
stop
Author
Difficulty
G|------------------------------------------------------4-5-4--------|
D|o-7-----5-----4-----4-------------7-----5-----4-----4---------5-/-o|
A|o-----------5--------/7---5---0-------------5---------------------o|x3
E|-------------------------------------------------------------------|
    1 + 2 + 3 + 4 + 1 + 2 + 3 + 4 + 1 + 2 + 3 + 4 + 1 + 2 + 3 + 4 +

G|------------------------------------------------------4-5-4--------|
D|o-7---7-5-----4-----4-------------7-----5-----4-----4---------5-/-o|
A|----7-------5--------/7---5---0-------------5---------------------o|
E|-------------------------------------------------------------------|
    1 + 2 + 3 + 4 + 1 + 2 + 3 + 4 + 1 + 2 + 3 + 4 + 1 + 2 + 3 + 4 +

G|-----------------------------------------------------4-5-4-------|
D|-7-----5-----4-----4-------------7-----5-----4-----4---------5-/-|
A|-----------5--------/7---5---0-------------5---------------------|
E|-----------------------------------------------------------------|
   1 + 2 + 3 + 4 + 1 + 2 + 3 + 4 + 1 + 2 + 3 + 4 + 1 + 2 + 3 + 4 +

0:31
G|-----------------------------------------------------------------|
D|-7-----7----/8-----7----/8---7---5-----5-------------------------|
A|-----------7-----------7-----------------5---3-------3---3-------|
E|---------------------------------------------------3---3---------|
   1 + 2 + 3 + 4 + 1 + 2 + 3 + 4 + 1 + 2 + 3 + 4 + 1 + 2 + 3 + 4 +

G|---------------------------------------------------4-5-4-5-------|
D|-7-----7----/8-----7----/8---7---5-------5-------------------5---|
A|-----------7-----------7---------------5---5-3-------------------|
E|-----------------------------------------------------------------|
   1 + 2 + 3 + 4 + 1 + 2 + 3 + 4 + 1 + 2 + 3 + 4 + 1 + 2 + 3 + 4 +

G|-----------------------------------------------------------------|
D|-7-----7----/8-----7----/8---7---5-----5-------------------------|
A|-----------7-----------7-----------------5---3-------3---3-------|
E|---------------------------------------------------3---3---------|
   1 + 2 + 3 + 4 + 1 + 2 + 3 + 4 + 1 + 2 + 3 + 4 + 1 + 2 + 3 + 4 +

G|---------------------------------------7-9---------------------------|
D|-7-----7----/8-----7----/8---7---5---------9-10-----9-10-9-10--------|
A|-----------7-----------7----------------------------------------10\--|
E|---------------------------------------------------------------------|
   1 + 2 + 3 + 4 + 1 + 2 + 3 + 4 + 1 + 2 + 3 + 4  + 1 + 2  + 3  + 4  +

0:51
G|-----------------------------------------------------------------|
D|---------------------------3---5-2-------------------------------|
A|---------------------------------------------3-------------------|
E|-1---------------------------------------------------------3-----|
   1 + 2 + 3 + 4 + 1 + 2 + 3 + 4 + 1 + 2 + 3 + 4 + 1 + 2 + 3 + 4 +

G|-----------------------------------------------------------------|
D|---------------------------3---5-2-------------------------------|
A|---------------------------------------3-----0-------------------|
E|-1---------------------------------------------------------------|
   1 + 2 + 3 + 4 + 1 + 2 + 3 + 4 + 1 + 2 + 3 + 4 + 1 + 2 + 3 + 4 +

Rest

1:04
G|------------------------------------------------------4-5-4-------|
D|o-7-----5-----4-----4-------------7-----5-----4-----4---------5-/-|
A|o-----------5--------/7---5---0-------------5---------------------|
E|------------------------------------------------------------------|
    1 + 2 + 3 + 4 + 1 + 2 + 3 + 4 + 1 + 2 + 3 + 4 + 1 + 2 + 3 + 4 +

G|---------------------------------------------------7---5-4-5-4----|
D|-7-----5-----4-----4-------------7-----5-----4-----------------5-o|
A|-----------5--------/7---5---0-------------5---------------------o|x3
E|------------------------------------------------------------------|
   1 + 2 + 3 + 4 + 1 + 2 + 3 + 4 + 1 + 2 + 3 + 4 + 1 + 2 + 3 + 4 +

1:34
G|-----------------------------------------------------7---7---7---|
D|-7-----5-----4-----4-------------7-----5-----4-----7-------------|
A|-----------5--------/7---5---0-------------5---------------------|
E|-----------------------------------------------------------------|
   1 + 2 + 3 + 4 + 1 + 2 + 3 + 4 + 1 + 2 + 3 + 4 + 1 + 2 + 3 + 4 +

G|-----------------------------------------------------4-5-4-------|
D|-7-----5-----4-----4-------------7-----5-----4-----4---------5-/-|
A|-----------5--------/7---5---0-------------5---------------------|
E|-----------------------------------------------------------------|
   1 + 2 + 3 + 4 + 1 + 2 + 3 + 4 + 1 + 2 + 3 + 4 + 1 + 2 + 3 + 4 +

1:44
G|---------------------------------------------------7---5-4-5-4---|
D|-7-----5-----4-----4-------------7-----5-----4-----------------5-|
A|-----------5--------/7---5---0-------------5---------------------|
E|-----------------------------------------------------------------|
   1 + 2 + 3 + 4 + 1 + 2 + 3 + 4 + 1 + 2 + 3 + 4 + 1 + 2 + 3 + 4 +

G|---------------------------------------------------7-----5-4-----|
D|-7-----5-----4-----4-------------7-----5-----4---------------5-/-|
A|-----------5--------/7---5---0-------------5---------------------|
E|-----------------------------------------------------------------|
   1 + 2 + 3 + 4 + 1 + 2 + 3 + 4 + 1 + 2 + 3 + 4 + 1 + 2 + 3 + 4 +

1:53
G|-----------------------------------------------------------------|
D|-7-----7----/8-----7----/8---7---5-----5-------------------------|
A|-----------7-----------7-----------------5---3-------3---3---5---|
E|---------------------------------------------------3---3---------|
   1 + 2 + 3 + 4 + 1 + 2 + 3 + 4 + 1 + 2 + 3 + 4 + 1 + 2 + 3 + 4 +

G|---------------------------------------7---4-5-----5-----5---5---|
D|-7-----7----/8-----7----/8---7---5-------------------------------|
A|-----------7-----------7-----------------------------------------|
E|-----------------------------------------------------------------|
   1 + 2 + 3 + 4 + 1 + 2 + 3 + 4 + 1 + 2 + 3 + 4 + 1 + 2 + 3 + 4 +

G|-----------------------------------------------------------------|
D|-7-----7----/8-----7----/8---7---5-----5-------------------------|
A|-----------7-----------7-----------------5---3-------3---3---5---|
E|---------------------------------------------------3---3---------|
   1 + 2 + 3 + 4 + 1 + 2 + 3 + 4 + 1 + 2 + 3 + 4 + 1 + 2 + 3 + 4 +

G|---------------------------------------7---4-5-----5---4-5---9---|
D|-7-----7----/8-----7----/8---7---5-------------------------------|
A|-----------7-----------7-----------------------------------------|
E|-----------------------------------------------------------------|
   1 + 2 + 3 + 4 + 1 + 2 + 3 + 4 + 1 + 2 + 3 + 4 + 1 + 2 + 3 + 4 +

2:13
G|-----------------------------------------------------------------|
D|---------------------------3---5-2-------------------------------|
A|---------------------------------------------3-------------------|
E|-1---------------------------------------------------------3-----|
   1 + 2 + 3 + 4 + 1 + 2 + 3 + 4 + 1 + 2 + 3 + 4 + 1 + 2 + 3 + 4 +

G|-----------------------------------------------------------------|
D|---------------------------3---5-2-------------------------------|
A|---------------------------------------3-----0-------------------|
E|-1---------------------------------------------------------------|
   1 + 2 + 3 + 4 + 1 + 2 + 3 + 4 + 1 + 2 + 3 + 4 + 1 + 2 + 3 + 4 +

rest

2:27
G|------------------------------------------------------------7-----|
D|o-7---------------------------5---5-----------------------------7-|
A|o-----------------------------------------------------------------|
E|------------------------------------------------------------------|
    1 + 2 + 3 + 4 + 1 + 2 + 3 + 4 + 1 + 2 + 3 + 4 + 1 + 2 + 3 + 4 +

G|-5----------------------------------------------------------------|
D|-------------------------7---5---4-------------------------7---7-o|
A|-------------------------------------3-/-7---3---5---------------o|x3
E|------------------------------------------------------------------|
   1 + 2 + 3 + 4 + 1 + 2 + 3 + 4 + 1 + 2 + 3 + 4 + 1 + 2 + 3 + 4 +


G|-----------------------------------------------------------7-----|
D|-7---------------------------5---5-----------------------------7-|
A|-----------------------------------------------------------------|
E|-----------------------------------------------------------------|
   1 + 2 + 3 + 4 + 1 + 2 + 3 + 4 + 1 + 2 + 3 + 4 + 1 + 2 + 3 + 4 +

G|-5-----------4---------------------------------------------------|
D|-------------------------7-----------5---------------------------|
A|-------------------------------------------------5---------------|
E|-----------------------------------------------------------------|
   1 + 2 + 3 + 4 + 1 + 2 + 3 + 4 + 1 + 2 + 3 + 4 + 1 + 2 + 3 + 4 +

G|-------------------------4---------------------------------7-----|
D|-7-----------7-----7---------7---5-----------------------------7-|
A|-----------7-----------7---------------------7-------------------|
E|-----------------------------------------------------------------|
   1 + 2 + 3 + 4 + 1 + 2 + 3 + 4 + 1 + 2 + 3 + 4 + 1 + 2 + 3 + 4 +

G|-5-----------4---------------------------------------------------|
D|-------------------------7---5---4-------------------------------|
A|-------------------------------------3-/-7---3---5---------------|
E|-----------------------------------------------------------------|
   1 + 2 + 3 + 4 + 1 + 2 + 3 + 4 + 1 + 2 + 3 + 4 + 1 + 2 + 3 + 4 +

G|-------------------------4---------------------------------7-----|
D|-7-----------7---------------7---5-----------------------------7-|
A|-----------7---------------------------------7-------------------|
E|-----------------------------------------------------------------|
   1 + 2 + 3 + 4 + 1 + 2 + 3 + 4 + 1 + 2 + 3 + 4 + 1 + 2 + 3 + 4 +

G|-5-----------4---------------------------------------------------|
D|-------------------------7---5---4-------------------------------|
A|-------------------------------------3-/-7---3---5---------------|
E|-----------------------------------------------------------------|
   1 + 2 + 3 + 4 + 1 + 2 + 3 + 4 + 1 + 2 + 3 + 4 + 1 + 2 + 3 + 4 +

G|-----------------------------------------------------------7-----|
D|-7-----7-----7-----7-----7---7---5-----7---5-------------------7-|
A|-----------7-----------7---------------------7-------------------|
E|-----------------------------------------------------------------|
   1 + 2 + 3 + 4 + 1 + 2 + 3 + 4 + 1 + 2 + 3 + 4 + 1 + 2 + 3 + 4 +

G|-5-----------4---------------------------------------------------|
D|-------------------------7---5---4-------------------------------|
A|-------------------------------------3-/-7---3---5---------------|
E|-----------------------------------------------------------------|
   1 + 2 + 3 + 4 + 1 + 2 + 3 + 4 + 1 + 2 + 3 + 4 + 1 + 2 + 3 + 4 +

G|-----------------------------------------------------------------|
D|-7-----7-----7-----7-----7---7---5-----7---5---------------------|
A|-----------7-----------7---------------------7-----7-7-7-7-------|
E|-----------------------------------------------------------------|
   1 + 2 + 3 + 4 + 1 + 2 + 3 + 4 + 1 + 2 + 3 + 4 + 1 + 2 + 3 + 4 +

G|-5-----------4-------------------------------------------7---7---|
D|-------------------------7---5---4-------------------------------|
A|-------------------------------------3-/-7---3---5---------------|
E|-----------------------------------------------------------------|
   1 + 2 + 3 + 4 + 1 + 2 + 3 + 4 + 1 + 2 + 3 + 4 + 1 + 2 + 3 + 4 +

G|-5-----------4---------------------------------------7-7-7-7-7-7-7-7-7-|
D|-------------------------7---5---4-------------------------------------|
A|-------------------------------------3-/-7---3---5---------------------|
E|-----------------------------------------------------------------------|
   1 + 2 + 3 + 4 + 1 + 2 + 3 + 4 + 1 + 2 + 3 + 4 + 1 + Tripl Tripl Tripl

G|-5-----------4---------------------------------------------------|
D|-------------------------7---5---4-------------------------------|
A|-------------------------------------3-/-7---3---5---------------|
E|-----------------------------------------------------------------|
   1 + 2 + 3 + 4 + 1 + 2 + 3 + 4 + 1 + 2 + 3 + 4 + 1 + 2 + 3 + 4 +

            
            
Suggest correction
Creating personal tab
Creating personal tab
You can edit any tab online and save it as your Personal.

You can edit, replace or remove any tab part or add personal notes – all changes will be seen only by you.

Personal tabs can be accessed anytime from any device, even offline.
Learn more »
Give kudos to tab author, rate the tab!
1 2 3 4 5
comments
print report bad tab
guest
You may want to rate the tab now too:
select rating
Wanna post a correction for this tab? Suggest correction