Oops, an error
Loading. Please wait.
We have an official Limelight tab made by UG professional guitarists. Check out the tab »
×
by Rush
113,023 views 105 this week
12 commentsread comments
1 2 3 4 5
x 29
add to favorites
×
Save as Personal and add changes to this tab that will be seen only by you. Learn more ›
×
You can save this tab as Personal to edit and correct it or add notes. All changes will be seen only by you. Learn more »
launch autoscroll
font size
0
reset
guitar tuner
backing track
0:00
0:00
edit
Autoscroll
slow
fast
+/-
esc
set tempo
stop
Author
Unregistered
      w 5  q e e e e q        e e e q e e q e e e e e 4    H H  
G|-------|-----------6\X-|--------4-----2--------------|-------|
D|*4:-R-*|-R-----6-7-----|*7:---4-----2---------------*|6:-----|
A|*4:---*|---0-7---------|*4:-2-----0-----------0-4-0-*|4:-2---|
E|-------|---------------|----------------0-2-4--------|-----4-|


   q q e e e q e e e   e|e q e e e q e e e   H H     q q Q e  
G|-------------------|---------------------|-----|-----------|
D|-R-4---4-R-2-2---2-|-4---4---4-R-2---2-4-|-----|4:-----R---|
A|-----4---------4---|-------4-------4-----|-2---|4:-------2-|
E|---2---------------|---------------------|---4-|---2-2-----|


      |e  e e q e e q e e e e e 2    H H   q q e e e q e e e  
G|----------4-----2--------------|-------|-------------------|
D|*7:-----4-----2---------------*|6:-----|-R-4---4-R-2-2---2-|
A|*4:-(2)-----0-----------0-4-0-*|4:-2---|-----4---------4---|
E|------------------0-2-4--------|-----4-|---2---------------|


   e e q e e e q e e e   H H     q q Q e     |e  e e q e e q e e e e e  
G|---------------------|-----|-----------|---------4-----2-------------|
D|-4---4---4-R-2---2-4-|-----|4:-----R---|7:-----4-----2---------------|
A|-------4-------4-----|-2---|4:-------2-|4:-(2)-----0-----------0-4-0-|
E|---2-----------------|---4-|---2-2-----|-----------------0-2-4-------|


     h|e e   H   H   e Q e e   Q q e   Q e e e   e e e     q e  
G|---------|---|---|---------|-------|---------|---------------|
D|3:-------|---|---|---------|---2---|---------|---------------|
A|4:-------|---|---|---------|-----2-|---------|---2-4-(5)\4-2-|
E|---4---2-|-0-|-2-|-4-4-4-2-|-0-----|-2-0-2-2-|-4-------------|


     e e e e e e e e   e e e e e e e e   e e e e e e e e   e e e e e e e e  
G|-------------------|-----------------|-----------------|-----------------|
D|4:-----R-------R---|-----R-----------|-----R-----------|-----R-------R---|
A|4:-----------------|-----------------|-----------------|-----------------|
E|---0-0---0-0-0---0-|-2-2---2-2-1-2-3-|-4-4---4-4-4-4-2-|-0-0---0-0-0---0-|


   e e e e e e e e   e e e e e e e e   e e e e e e e e   e e e e e e s s e  
G|-----------------|-----------------|-----------------|-------------------|
D|-----R-----------|-----R-----------|-----R-------2---|-----R-----4-4-----|
A|-----------------|-----------------|---------------2-|---------4-----4---|
E|-2-2---2-2-2-2-2-|-4-4---4-4-4-4-2-|-0-0---0-0-0-----|-2-2---2---------2-|


     h|e e   Q q e   h q     e e e q e e q e e e e e  
G|---------|-------|-----|-------4-----2-------------|
D|3:-------|---2---|-----|7:---4-----2---------------|
A|4:-------|-----2-|---4-|4:-2-----0-----------0-4-0-|
E|---4---2-|-0-----|-2---|---------------0-2-4-------|


   e e e e e e e q e e e e e     H Q e e e   q q e e e q e e e  
G|-----------2---------------|-------------|-------------------|
D|-----R---R---R-------------|6:---6---6-6-|-R-4---4-R-2-2---2-|
A|-2-2---0-------------0-4-0-|4:-2---------|-----4---------4---|
E|---------------0-2-4-------|-----4-4-----|---2---------------|


   e e q e e e q e e e   H H     q q Q e      |e  e e q e e q e e e e e 2 
G|---------------------|-----|-----------|----------4-----2--------------|
D|-4---4---4-R-2---2-4-|-----|4:---4-R---|*7:-----4-----2---------------*|
A|-------4-------4-----|-2---|4:-------2-|*4:-(2)-----0-----------0-4-0-*|
E|---2-----------------|---4-|---2-------|------------------0-2-4--------|


     H Q e e e   q q e e e q e e e   e e q e e e q e e e   H H     q q Q e  
G|-------------|-------------------|---------------------|-----|-----------|
D|6:---6---6-6-|-4-4---4-R-2-2---2-|-4---4---4-R-2---2-4-|-----|4:---4-R---|
A|4:-2---------|-----4---------4---|-------4-------4-----|-2---|4:-------2-|
E|-----4-4-----|-2-2---------------|---2-----------------|---4-|---2-------|


     |e  e e q e e q e e e e e     h|e e   h q   H   e Q e e   Q q e   Q e e e  
G|---------4-----2-------------|---------|-----|---|---------|-------|---------|
D|7:-----4-----2---------------|3:-------|---2-|---|---------|---2---|-----R---|
A|4:-(2)-----0-----------0-4-0-|4:-------|-----|---|---------|-----2-|---------|
E|-----------------0-2-4-------|---4---2-|-0---|-2-|-4-4-4-2-|-0-----|-2-0---2-|


   e e e     q e     e e e e e e e e   e e e e e e e e   e e e e e e e e  
G|---------------|-------------------|-----------------|-----------------|
D|---------------|4:-----R-------R---|-----------------|-----6-6-R---6---|
A|---2-4-(5)\4-2-|4:-----------------|-----------------|-----------------|
E|-4-------------|---0-0---0-0-0---0-|-2-2-2-2-2-1-2-3-|-4-4-------4---0-|


   e e e e e e e e   e e e e e e e e   e e e e e e e e   e e e e e q e  
G|-----------------|-----------------|-----------------|---------------|
D|-----R-------R---|-----R-----------|-----------------|-----R-----2---|
A|-----------------|-----------------|---------2-------|-------------2-|
E|-0-0---0-0-0---0-|-2-2---2-2-2-1/2-|-4-4-0-4---4-2-4-|-0-0---0-0-----|

                                           Guitar
                                           Solo
   e e e q e e e   e e e e e e e e   q H     H   H   H   e e|h   H   H   H  
G|---------------|-----------------|-----|-----|---|---|-------|---|---|---|
D|-----4---------|-----------------|---R-|3:---|---|---|-------|---|---|---|
A|---4---4-2-1---|-----------------|-----|4:---|---|---|-------|---|---|---|
E|-2-----------2-|-4-4-2-4-4-4-2-4-|-4---|---4-|-0-|-2-|-4-4---|-4-|-0-|-2-|


   e e     e s E e   Q e e e   e e e q e   e e e q e   e e e e e e   Q e e e  
G|-----------------|---------|-----------|-----------|-------------|---------|
D|-----------------|---------|-------2---|-----------|-------------|---------|
A|---3-(4)/5-5\4-2-|---2-----|---------2-|---4---2-1-|-----------2-|---2-1---|
E|-4---------------|-4---4-2-|-0-0-0-----|-2---2-----|-4-2-2-3-4---|-4-----4-|


   e e e  q e   e e e e e e   e e e e s E   Q e e e   e e e e e e   e q e e e  
G|------------|-------------|-------------|---------|-------------|-----------|
D|---2---/4-2-|-------------|-------------|---------|-----2-2---2-|-----------|
A|-----2------|---4-2-1-2-4-|-------2-----|---2-----|---2-----2---|-----------|
E|-0----------|-2-----------|-4-2-4---4-2-|-4---4-2-|-0-----------|-2-2-2-0-2-|


   e e e e e e   e q e e e   e e e e e e   e e e e e e   e e e e e e  
G|-------------|-----------|-------------|-------------|-------------|
D|-------------|-----------|-------2/4-2-|-------------|-------------|
A|-------2-----|-----2-----|-------------|---4-2-1-2-4-|-------2-----|
E|-4-2-4---4-2-|-4-4---4-2-|-0-0-0-------|-2-----------|-4-2-4---4-2-|

  Rhythm Guitar
  Enters Here
   e e e q e   e e e q e   e e e e e e   e e     e e e e   e e e q e  
G|-----------|-----------|-------------|-----------------|-----------|
D|-----------|-------2---|-------------|-----------------|-------2---|
A|-------2---|---------2-|-------------|---2-(4)/5\4-2---|---------2-|
E|-4-4-4---4-|-0-0-0-----|-2-2-2-0-0-2-|-4-------------4-|-0-0-0-----|


   e e e e e e   e e e q e   e e e q e   e e e q e   e e     e e e e  
G|-------------|-----------|-----------|-----------|-----------------|
D|-------------|-----------|-------2---|-----------|-----------------|
A|-------------|-------2---|---------2-|-----------|---2-(4)/5-4-2---|
E|-2-2-2-0-0-2-|-4-4-4---4-|-0-0-0-----|-2-2-2-0-2-|-4-------------4-|


   e e e q e   e e e e e e   e e e e e e     e e e e e e e e   e e e e e e e e  
G|-----------|-------------|-------------|-------------------|-----------------|
D|---2---2---|-------------|-------------|4:-2---2-2-2-2-----|-----R-----------|
A|---------2-|-------------|-------2-----|4:-----------------|-----------------|
E|-0---0-----|-2-2-2-0-0-2-|-4-4-4---4-2-|-----0---------0-0-|-2-2---2-2-2-0-2-|


   e e e e e e e e   e e e e e e e e   e e e e e e e e   e e e e e e e e  
G|-----------------|-----------------|-----------------|-----------------|
D|-----R-----------|---2-R-2-----R---|---4-R-4-4-------|-----------------|
A|-----------------|-----------------|-----------------|---------2-------|
E|-4-4---4-4-4-4-2-|-0-------0-0---0-|-2---------2-2-3-|-4-4-2-4---4-2-4-|


   e e e e e e e e   e e e e e e e e   e e e e e e e e   e q e e e e e  
G|-----------------|-----------------|-----------------|---------------|
D|-----2-------2---|-----------------|-----------------|---2-----2---2-|
A|---------------2-|---4-----4-2-1---|---------2-------|-----------2---|
E|-0-0---0-0-0-----|-2---2-2-------2-|-4-4-2-4---4-2-4-|-0---0-0-------|


   e q e e e e e   e e e e e e e e   e e e e e e e e   e e e e e e e e  
G|---------------|-----------------|-----------------|-----------------|
D|---------------|-----------------|---2-----2-----2-|-----------------|
A|---4---4-2-1---|---------2-------|-----2-----2-----|-----4---4-2-1---|
E|-2---2-------2-|-4-4-2-4---4-2-4-|-0-----0-----0---|-2-2---2-------2-|


   e e e e e e e e   e e e e e e e e   e e e e e e e e   e e e e e e e e  
G|-----------------|-----------------|-----------------|-----------------|
D|-----------------|-----2---2-2-2---|-----------------|-----------------|
A|---------2/4-2---|---------------2-|---4-----4-2-1---|---------2-4-2---|
E|-4-4-2-4-------4-|-0-0---0---------|-2---2-2-------2-|-4-4-2-4-------4-|

                                     Hold Thru
                                     Drum Fill
   e Q e e e e   e H|e   e e e e e e Q           q   H
G|-------------|-------|-----3-----3-----------|-------|
D|-2-2-2-2-2---|-------|-------4-6-------------|-----R-|
A|-----------2-|-------|---6-------------------|-------|
E|-0-0---------|-2-2---|-4-----------4---------|-4\X---|



************************************

| (n)  Ghost note
| /    Slide up
| \    Slide down

************************************

            
            
Suggest correction
Creating personal tab
Creating personal tab
You can edit any tab online and save it as your Personal.

You can edit, replace or remove any tab part or add personal notes – all changes will be seen only by you.

Personal tabs can be accessed anytime from any device, even offline.
Learn more »
comments
print report bad tab
12 comments total. Showing first comments. show 1 bad comment
+1 reply
Drmckool 230 Sep 27, 2007 06:06 PM

it sounds right to me

0 reply
Dan_man987 93 Sep 03, 2008 02:25 PM

Great tab, completely perfect. It isn't wrong at all.

guest
Wanna post a correction for this tab? Suggest correction