Oops, an error
Loading. Please wait.

Something For Nothing tab

version 1
version 1

Whole song

Interactive

by Rush
23,301 views 39 this week
1 commentread comment
1 2 3 4 5
x 12
add to favorites
×
Save as Personal and add changes to this tab that will be seen only by you. Learn more ›
×
You can save this tab as Personal to edit and correct it or add notes. All changes will be seen only by you. Learn more »
launch autoscroll
font size
0
reset
how to read this tab
guitar tuner
backing track
0:00
0:00
edit
Autoscroll
slow
fast
+/-
esc
set tempo
stop
Author
                                           Something for Nothing
                                                     RUSH

Tabbed By: Karl Schmidt
Email: Packers_rock@sbcglobal.net  Contact me for comments or questions

Tuning:

e[--
B[--
G[--
D[--
A[--
E[--


Intro 
                           Acoustic                             
 
    Am               G      D         E               G    Am
e[--------0-------|--3------2------|--------0------|--3----0--------]
B[-----------1----|----3------3----|------------0--|----3----1------]
G[------2------2--|----------------|------1--------|-------------2--]
D[----2-----------|----------------|----2----------|-----------2----]
A[--0-------------|----------------|---------------|----------------]
E[----------------|----------------|--0------------|----------------]   *X4*

1st and 2nd time through, Electric doubles acoustic.
3rd and 4th time through, Electric guitar plays this. (lined up with intro tab)

   Am                G      D         E               G    Am
e[--------0-------|---------14-----|--------0------|---------0--------]
B[-----------1----|--15--------15--|------------0--|--12-------1------]
G[------2------2--|-----12---------|------1--------|-----12--------2--]
D[----2-----------|----------------|----2----------|-------------2----]
A[--0-------------|----------------|---------------|------------------]
E[----------------|----------------|--0------------|------------------]

VERSE
                                Acoustic

    Am               G      D         E               G    Am
e[--------0-------|--3------2------|--------0------|--3----0--------]
B[-----------1----|----3------3----|------------0--|----3----1------]
G[------2------2--|----------------|------1--------|-------------2--]
D[----2-----------|----------------|----2----------|-----------2----]
A[--0-------------|----------------|---------------|----------------]
E[----------------|----------------|--0------------|----------------]  *X2*

    E                G      
e[--------0-------|------------3---------|----------------|----------------]
B[------0----0----|----------------3-----|----------------|----------------]
G[----1--------1--|----------0--------0--|----------------|----------------]
D[--2-------------|--------0-------------|----------------|----------------]
A[----------------|----------------------|----------------|----------------]
E[----------------|--0-2-3---------------|----------------|----------------]   *X2*
                             
                             Acoustic stops playing

 
                            Electric

                     G      D                         G
e[----------------|---------14-----|---------------|----------------]
B[----------------|--15--------15--|---------------|--12------------]
G[----------------|-----12---------|---------------|-----12---------]
D[----------------|----------------|---------------|----------------]
A[----------------|----------------|---------------|----------------]
E[----------------|----------------|---------------|----------------]  *X2*

                                           Am      D  Am D  Am
e[----------------|---------------------|--0-0--0--2--0--2--0-0--|---------]
B[----------------|---------------------|--1-1--1--3--1--3--1-1--|---------]
G[----------------|---------------------|--2-2--2--2--2--2--2-2--|---------]
D[----------------|---------------------|--2-2--2-----2-----2-2--|---------]
A[----------------|---------------------|------------------------|---------]
E[----------------|---------------------|------------------------|---------]   *X2*

                   
   A       C  D   Esus4 E    D  C  G  C
e[-----------------|--0---0----------------]
B[-----------------|--0---0----------------]
G[-----------5--7--|--2---1----7--5-----5--]
D[--7---7----5--7--|--2---2----7--5--5--5--]
A[--7---7----3--5--|--2---2----5--3--5--3--]
E[--5---5----------|--0---0----------3-----]  *X2*

PRE-CHORUS
 
    E     E      G          G      Am      D  Am D  Am
e[--------0---|-------------3---|--0-0--0--2--0--2--0-0--|---------]
B[--------0---|-------------3---|--1-1--1--3--1--3--1-1--|---------]
G[------------|-----------------|--2-2--2--2--2--2--2-2--|---------]
D[------------|-----------------|--2-2--2-----2-----2-2--|---------]
A[------------|-----------------|------------------------|---------]
E[--0---0-----|--0-2-3---3------|------------------------|---------]


    E     E      G          G      Am      D  Am D  Am         Am      D  Am D  Am
E[--------0---|-------------3---|--0-0--0--2--0--2--0--0-0--|--0-0--0--2--0--2--0-0--]
B[--------0---|-------------3---|--1-1--1--3--1--3--1--1-1--|--1-1--1--3--1--3--1-1--]
G[------------|-----------------|--2-2--2--2--2--2--2--2-2--|--2-2--2--2--2--2--2-2--]
D[------------|-----------------|--2-2--2-----2-----2--2-2--|--2-2--2-----2-----2-2--]
A[------------|-----------------|---------------------------|------------------------]
E[--0---0-----|--0-2-3---3------|---------------------------|------------------------]


CHORUS

    D C D                       D C D
e[---------------------------|-----------------------]
B[---------------------------|-----------------------]
G[--7-5-7--------------------|--7-5-7----------------]
D[--7-5-7--------------------|--7-5-7----------------]
A[--5-3-5--0-2-3-2-0-2-------|--5-3-5--0-2-3-2-------]
E[----------------------3-5--|------------------3-5--]

    D C D                       D C D   A   G    G     Am
e[---------------------------|--------------3----3--|--0------]
B[---------------------------|--------------3----3--|--1------]
G[--7-5-7--------------------|--7-5-7---2---0----0--|--2------]
D[--7-5-7--------------------|--7-5-7---2---0----0--|--2------]
A[--5-3-5--0-2-3-2-0-2-------|--5-3-5---0---2----2--|---------]
E[----------------------3-5--|--------------3----3--|---------]

GUITAR SOLO
                      Lead Electric

     This is played over the last A minor in the chorus.

e[---------------------------------------------------------------------------]
B[--6h8p6h8p6h8p6h8p6h8p6s7h9p7h9s8h10p8h10p8h10p8h10s7h9h7p9h7h9s6h8p6h8\b--]
G[---------------------------------------------------------------------------]
D[---------------------------------------------------------------------------]
A[---------------------------------------------------------------------------]
E[---------------------------------------------------------------------------]

                          Now the real solo!

e[--------------------------| 
B[--------------------------|
G[----------12b14r12-14~~~--| 
D[--7---7-------------------| 
A[--7---7-------------------|
E[--5---5-------------------| 

e[-------------------------------------------------------------------------]
B[--------12h13p12-----------------13-15-16s15-13----13h15p13----13h15p13--]
G[--14-14----------14-12b14r12--12----------------11----------11-----------]
D[-------------------------------------------------------------------------]
A[-------------------------------------------------------------------------]
E[-------------------------------------------------------------------------]


e[-------------------------------------------| 
B[--15b17~~~--17b19r17-15h17p15-12-12b15r12--|
G[-------------------------------------------| 
D[-------------------------------------------| 
A[-------------------------------------------| 
E[-------------------------------------------| 

e[--------------------------------------------------------------------------]
B[--------------------------------------------------------------------------]
G[----12h14p12----12--------------------------------------------------------]
D[-------------14----14p12h14-12-14p12----------12h14p12----12h14p12----12--]
A[-------------------------------------15p12h15----------15----------15-----]
E[--------------------------------------------------------------------------]


e[----------------------------------|---------------------------------------]
B[----------------------------------|---------------------------------------]
G[----------------------------------|------------------------------12b14\b--]
D[--12b14r12--14-12-----------------|--121214-121214-121214-121214----------]
A[------------------15-14-15-14~~~--|---------------------------------------]
E[----------------------------------|---------------------------------------]

e[----------------------------------------------12--| 
B[--14b16r14----14b16r14-14b16r14---------13h15-----| 
G[----------------------------------12h14-----------| 
D[--------------------------------------------------| 
A[--------------------------------------------------| 
E[--------------------------------------------------|
                       
 
e[----------------12--------------12-------------------------------------]
B[----------13h15-----------13h15----15-13-12-12b15-15-15r12-12b15r12/b--]
G[----12h14-----------12h14----------------------------------------------]
D[-----------------------------------------------------------------------]
A[-----------------------------------------------------------------------]
E[-----------------------------------------------------------------------]


           Rhythm Electric
  
    A        C  D   Esus4 E    D  C  G  C
e[-----------------|--0---0----------------]
B[-----------------|--0---0----------------]
G[-----------5--7--|--2---1----7--5-----5--]
D[--7---7----5--7--|--2---2----7--5--5--5--]
A[--7---7----3--5--|--2---2----5--3--5--3--]
E[--5---5----------|--0---0----------3-----]  *X2*


    E     E      G          G      Am      D  Am D  Am
e[--------0---|-------------3---|--0-0--0--2--0--2--0-0--|---------]
B[--------0---|-------------3---|--1-1--1--3--1--3--1-1--|---------]
G[------------|-----------------|--2-2--2--2--2--2--2-2--|---------]
D[------------|-----------------|--2-2--2-----2-----2-2--|---------]
A[------------|-----------------|------------------------|---------]
E[--0---0-----|--0-2-3---3------|------------------------|---------]


    E     E      G          G      Am      D  Am D  Am         Am      D  Am D  Am
E[--------0---|-------------3---|--0-0--0--2--0--2--0--0-0--|--0-0--0--2--0--2--0-0--]
B[--------0---|-------------3---|--1-1--1--3--1--3--1--1-1--|--1-1--1--3--1--3--1-1--]
G[------------|-----------------|--2-2--2--2--2--2--2--2-2--|--2-2--2--2--2--2--2-2--]
D[------------|-----------------|--2-2--2-----2-----2--2-2--|--2-2--2-----2-----2-2--]
A[------------|-----------------|---------------------------|------------------------]
E[--0---0-----|--0-2-3---3------|---------------------------|------------------------]


BACK TO CHORUS

    D C D                       D C D
e[---------------------------|-----------------------]
B[---------------------------|-----------------------]
G[--7-5-7--------------------|--7-5-7----------------]
D[--7-5-7--------------------|--7-5-7----------------]
A[--5-3-5--0-2-3-2-0-2-------|--5-3-5--0-2-3-2-------]
E[----------------------3-5--|------------------3-5--]

    D C D                       D C D   A   G    G     Am
e[---------------------------|--------------3----3--|--0------]
B[---------------------------|--------------3----3--|--1------]
G[--7-5-7--------------------|--7-5-7---2---0----0--|--2------]
D[--7-5-7--------------------|--7-5-7---2---0----0--|--2------]
A[--5-3-5--0-2-3-2-0-2-------|--5-3-5---0---2----2--|---------]
E[----------------------3-5--|--------------3----3--|---------]

Pick slides down the fretboard on the sixth string


BRIDGE

    Am  G  D     E     G  Am    Am  G  D     E       G     Am
e[--0---3--2--|--------3--0--|--0---3--2--|----------3-3-3-0--|
B[--1---3--3--|--------3--1--|--1---3--3--|----------3-3-3-1--|
G[--2---0--2--|--------0--2--|--2---0--2--|----------0-0-0-2--|
D[--2---------|--2--------2--|--2---------|--2-2-----------2--|
A[------------|--2-----------|------------|--2-2--------------|
E[------------|--0-----------|------------|--0-0--------------|

    Am  G  D     E     G  Am    Am  G  D     E     G  Am
e[--0---3--2--|--------3--0--|--0---3--2--|--------3--0--|
B[--1---3--3--|--------3--1--|--1---3--3--|--------3--1--|
G[--2---0--2--|--------0--2--|--2---0--2--|--------0--2--|
D[--2---------|--2--------2--|--2---------|--2--------2--|
A[------------|--2-----------|------------|--2-----------|
E[------------|--0-----------|------------|--0-----------|


BACK TO PRE-CHORUS
 
    E     E      G          G      Am      D  Am D  Am
e[--------0---|-------------3---|--0-0--0--2--0--2--0-0--|---------]
B[--------0---|-------------3---|--1-1--1--3--1--3--1-1--|---------]
G[------------|-----------------|--2-2--2--2--2--2--2-2--|---------]
D[------------|-----------------|--2-2--2-----2-----2-2--|---------]
A[------------|-----------------|------------------------|---------]
E[--0---0-----|--0-2-3---3------|------------------------|---------]


    E     E      G          G      Am      D  Am D  Am         Am      D  Am D  Am
E[--------0---|-------------3---|--0-0--0--2--0--2--0--0-0--|--0-0--0--2--0--2--0-0--]
B[--------0---|-------------3---|--1-1--1--3--1--3--1--1-1--|--1-1--1--3--1--3--1-1--]
G[------------|-----------------|--2-2--2--2--2--2--2--2-2--|--2-2--2--2--2--2--2-2--]
D[------------|-----------------|--2-2--2-----2-----2--2-2--|--2-2--2-----2-----2-2--]
A[------------|-----------------|---------------------------|------------------------]
E[--0---0-----|--0-2-3---3------|---------------------------|------------------------]


END WITH OUTRO SOLO

                   Lead Electric

Solo starts where * is on rhythm tab on 1st time through

e[-------------------------------------------------------]
B[------------------------------------------13-----------]
G[--14b16r14-14b16r14-14b16r14-14-14--12b14----12b14~~~--]
D[-------------------------------------------------------]
A[-------------------------------------------------------]
E[-------------------------------------------------------]


e[--------------------------------------------------------------------------| 
B[--------------------------------------------------------------------------| 
G[--------------------------------14-------14-------------------------------|
D[--12~~~-12~~~-12~~~----12-14b16----14b16----r14-----12-14-14b16r14-12-----| 
A[--------------------14---------------------------14-------------------14--| 
E[--------------------------------------------------------------------------|
 

e[-----------------------------------------------]
B[-----------------------------------------------]
G[-----------------------------------------------]
D[----14-12----12h14p12----14b16r14----12----12--]
A[----------14----------14----------14----14-----]
E[-----------------------------------------------]


e[---------------------------------------| 
B[---------------------------------------| 
G[---------------------------------------| 
D[-----12-------------14b16r14-14p12-----| 
A[--14----14-14-14-14----------------14--| 
E[---------------------------------------| 


e[-----------------------------------------------------------]
B[-----------------------------------------------------------]
G[-------------------------------------------------------12--]
D[----------------------------------------------14p12h14-----]
A[----15~~~-15~~~-15~~~-15-14-15-14-15p14p12h14--------------]
E[-----------------------------------------------------------]


e[---------------------------------------------------| 
B[-----13----13----13----13----13----13----13----13--| 
G[--12b14-12b14-12b14-12b14-12b14-12b14-12b14-12b14--| 
D[---------------------------------------------------| 
A[---------------------------------------------------| 
E[---------------------------------------------------| 


e[----------------------------------15/b--]
B[-------13----13----13----13----13-------]
G[----12b14-12b14-12b14-12b14-12b14-------]
D[----------------------------------------]
A[----------------------------------------]
E[----------------------------------------]


e[-----------------------------------------------------| 
B[--15h18p15------------15h18p15-------15h18p15--------| 
G[-----------17b19r17------------17b19----------17b19--| 
D[-----------------------------------------------------| 
A[-----------------------------------------------------| 
E[-----------------------------------------------------| 


e[---------------------------------------------------------------14b15-14b15--]
B[----15h18p15-------15h18p15-------15h18p15-------15h18p15-------------------]
G[-------------17b19---------17b19----------17b19----------17b19--------------]
D[----------------------------------------------------------------------------]
A[----------------------------------------------------------------------------]
E[----------------------------------------------------------------------------]


                  Ryhthm Electric

    D C D                       D C D
e[---------------------------|-----------------------]
B[---------------------------|-----------------------]
G[--7-5-7--------------------|--7-5-7----------------]
D[--7-5-7--------------------|--7-5-7----------------]
A[--5-3-5--0-2-3-2-0-2-------|--5-3-5--0-2-3-2-------]
E[----------------------3-5--|------------------3-5--]

    D C D                     *  D C D   A   G    G     Am
e[---------------------------|--------------3----3--|--0------]
B[---------------------------|--------------3----3--|--1------]
G[--7-5-7--------------------|--7-5-7---2---0----0--|--2------]
D[--7-5-7--------------------|--7-5-7---2---0----0--|--2------]
A[--5-3-5--0-2-3-2-0-2-------|--5-3-5---0---2----2--|---------]
E[----------------------3-5--|--------------3----3--|---------] 
 
Repeat 3 times then fade out.



Key:

h    :hammer-on
p    :pull-off
~~~  :vibrato
s    :slide
b    :bend to note (ex. 14b16. Start at the 14th fret until you get the sound of the 16th fret)
r    :Return from bend (ex. 14b16r14. From the bend, go back to sounding like the 14th fret.)

            
            
Suggest correction
Creating personal tab
Creating personal tab
You can edit any tab online and save it as your Personal.

You can edit, replace or remove any tab part or add personal notes – all changes will be seen only by you.

Personal tabs can be accessed anytime from any device, even offline.
Learn more »
comments
print report bad tab
1 comment total.
0 reply
digitallando 10 Mar 08, 2013 02:46 PM

Fantastic, maybe put it on Rush Tablature Project?

guest
You may want to rate the tab now too:
select rating
Wanna post a correction for this tab? Suggest correction