Oops, an error
Loading. Please wait.

The Anarchist bass

by Rush
11,117 views 6 this week
6 commentsread comments
1 2 3 4 5
x 16
add to favorites
×
Save as Personal and add changes to this tab that will be seen only by you. Learn more ›
×
You can save this tab as Personal to edit and correct it or add notes. All changes will be seen only by you. Learn more »
launch autoscroll
font size
0
reset
guitar tuner
edit
Autoscroll
slow
fast
+/-
esc
set tempo
stop
Author
Difficulty
Rush - The Anarchist

This was a fun one to tab. A pretty straight-forward bassline, but lots of fun to 
play. Great song!

Enjoy and always remember to rate!

---Intro Part 1--(0:08)---------

G|------------------------------------|
D|-------------------------5---5h7-5--|
A|-5-5-5-5-5-5-5-5-8-8-8-8---8--------|
E|------------------------------------|

G|----------------------------------|
D|----------------------------------|
A|---------3-5-3--------------------|
E|-6-6-6-6-------6-3-3-3-3-3-1-3-1--|

G|----------------------------------|
D|----------------------------------|
A|-5-5---5-5---5---3-3-3-3-3-5-3----|
E|-----5-----5---5---------------6--|

G|----------------------------------|
D|----------------------------------|
A|---------------------7/-------7/--|
E|-3-3-3-3-3-3-3-3-0-0----0-0-0-----|

G|------------------------------------|
D|-------------------------5---5h7-5--|
A|-5-5---5-5-5-5-5-8-8-8-8---8--------|
E|-----5------------------------------|

G|-------------------------------------|
D|-------------------------------------|
A|---------3-5-3-----------------------|
E|-6-6-6-6-------6-3-3-3-3-3-0-0-0-0~--|

G|-----------------|
D|-----------------|
A|-----------------|
E|-0-0-0-0---------| x4


---Intro Part 2--(0:42)-------

G|----------------------------------| 
D|-----------5-4-----7--5--4--------|  
A|-------5-7------5-----------7--5--|   
E|-0-0-0----------------------------|    
                                          
G|-----------------------------|         
D|------5-4--------------------|       
A|--5-7------5--7--------------|       
E|-----------------7--5--3--3--|      

G|-----------------------------| 
D|------5-4-----7--5--4--------|  
A|--5-7------5-----------7--5--|   
E|-----------------------------|    
                                          
G|-----------------------------|         
D|------5-4--------------------|       
A|--5-7------5--7--------------|       
E|-----------------7--5--3--3--| 

G|----------------------------------|
D|-----2---5-3-2-------4---5---7----|
A|-3-3---3-------3-5-5---5---5---5--|
E|----------------------------------|

G|--------------------------------|
D|--------------------------------|
A|-----0---3-1-0-------2---3---5--|
E|-1-1---1-------1-3-3---3---3----|

G|----------------------------------|
D|-----2---5-3-2-------4---5---7----|
A|-3-3---3-------3-5-5---5---5---5--|
E|----------------------------------|

G|---------------------------------|
D|---------------------------------|
A|-----0---3-1-0-------2---3---5\--|
E|-1-1---1-------1-3-3---3---3-----|


---Intro Part 3--(1:10)------------

G|---------------|
D|--3 bars rest--|
A|---------------|
E|---------------|

G|------10-------10-------|
D|---------12-12-----12\--|
A|------------------------| (really fast)
E|------------------------|

G|-----------------|
D|--2 bars rest----|
A|-----------------|
E|-----------------|

G|-12-12-12-12-12-----10-10-9-9-10-10-9-9-10-10-12\--|
D|---------------------------------------------------|
A|---------------------------------------------------|
E|---------------------------------------------------|


---Verse 1--(1:24)------------

G|----------------------------------|
D|----------------------------------|
A|-5-5---5-5---5---3-3-3-3-3-5-3----|
E|-----5-----5---5---------------6--|

G|----------------------------------|
D|---------------------2---2---2----|
A|----------------------------------|
E|-3-3-3-3-3-3-3-3-0-0---0---0---0--|

G|------------------------------------|
D|-------------------------5---5h7-5--|
A|-5-5---5-5-5-5-5-8-8-8-8---8--------|
E|-----5------------------------------|

G|----------------------------------|
D|----------------------------------|
A|---------3-5-3-------------0------|
E|-6-6-6-6-------6-3-3-3-3-3---3-1--|

G|----------------------------------|
D|----------------------------------|
A|-5-5---5-5---5---3-3-3-3-3-5-3----|
E|-----5-----5---5---------------6--|

G|----------------------------------|
D|---------------------2---2---2----|
A|----------------------------------|
E|-3-3-3-3-3-3-3-3-0-0---0---0---0--|

G|------------------------------------|
D|-------------------------5---5h7-5--|
A|-5-5---5-5-5-5-5-8-8-8-8---8--------|
E|-----5------------------------------|

G|-------------------------------------|
D|-------------------------------------|
A|---------3-5-3-----------------------|
E|-6-6-6-6-------6-3-3-3-3-3-0-0-0-0~--|


---Pre-Chorus--(1:51)------------

G|-----------------|
D|-----------------|
A|-----------------|
E|-0-0-0-0---------| x3

G|-----------------|
D|-----------------|
A|-0-0-0-0---------|
E|-----------------| x2

G|-------------------------|
D|-------------------------|
A|-------------------------|
E|-0-0-0-0-------0----0-0--|


---Chorus 1--(2:18)---------------

G|-----------------------------| \
D|------5-4-----7--5--4--------|  \
A|--5-7------5-----------7--5--|   \
E|-----------------------------|    \
                                     x4     
G|-----------------------------|    /     
D|------5-4--------------------|   /    
A|--5-7------5--7--------------|  /     
E|-----------------7--5--3--3--| /

G|--------------------------------------------------|
D|--------------------------------------------------|
A|-7-7-7-7-7-7-7-7-5-5-5-5-5-5-5-5-0-0-0-0-0-0-0-0--|
E|--------------------------------------------------|

G|----------------------------------| 
D|-----2---5-3-2-------4---5---7----|  
A|-3-3---3-------3-5-5---5---5---5--|   
E|----------------------------------|    
                                         
G|---------------------------------|     
D|---------------------------------|    
A|-----0---3-1-0-------2---3---5\--|   
E|-1-1---1-------1-3-3---3---3-----|  

G|------------------------------------| 
D|-----2---3h5-3-2-------4---5---7----|  
A|-3-3---3---------3-5-5---5---5---5--|   
E|------------------------------------|    
                                         
G|-----------------------------------|     
D|-----------------------------------|    
A|-----0---3-1-0-------2---3---5-5\--|   
E|-1-1---1-------1-3-3---3---3-------|  


---Verse 2--(3:05)-------------

G|---------------|
D|--3 bars rest--|
A|---------------|
E|---------------|

G|-------------------------------------------------|
D|--------------3----------------------------------|
A|--5-5-3-3-5-5---5-5-5-5---------------------3----|
E|----------------------------------------3h5---3--|

G|-10-10-10-10-9--9--9--10-5-5-5-5-5-5-5-5--|
D|-10-10-10-10-10-10-10-10-5-5-5-5-5-5-5-5--|
A|------------------------------------------|
E|------------------------------------------|


---Verse 2--(3:19)-----------

G|----------------------------------|
D|----------------------------------|
A|-5-5---5-5---5---3-3-3-3-3-5-3----|
E|-----5-----5---5---------------6--|

G|----------------------------------|
D|---------------------2---2---2----|
A|----------------------------------|
E|-3-3-3-3-3-3-3-3-0-0---0---0---0--|

G|------------------------------------|
D|-------------------------5---5h7-5--|
A|-5-5---5-5-5-5-5-8-8-8-8---8--------|
E|-----5------------------------------|

G|------------------------------------|
D|------------------------------------|
A|---------3-5-3----------------------|
E|-6-6-6-6-------6-3-3-3-3-3h5-3-1-0--|

G|----------------------------------|
D|----------------------------------|
A|-5-5---5-5---5---3-3-3-3-3-5-3----|
E|-----5-----5---5---------------6--|

G|----------------------------------|
D|-------------------2-----2---2----|
A|----------------------------------|
E|-3-3-3-3-3-3-3-3-0---0-0---0---0--|

G|------------------------------------|
D|-------------------------5---5h7-5--|
A|-5-5---5-5-5-5-5-8-8-8-8---8--------|
E|-----5------------------------------|

G|-------------------------------------|
D|-------------------------------------|
A|---------3-5-3-----------------------|
E|-6-6-6-6-------6-3-3-3-3-3-0-0-0-0~--|


---Pre-Chorus 2--(3:46)------------

G|-----------------|
D|-----------------|
A|-----------------|
E|-0-0-0-0---------| x3

G|-----------------|
D|-----------------|
A|-0-0-0-0---------|
E|-----------------| x2

G|-----------------|
D|-----------------|
A|-----------------|
E|-0-0-0-0---------| x2


---Chorus 2--(2:18)---------------

G|-----------------------------| \
D|------5-4-----7--5--4--------|  \
A|--5-7------5-----------7--5--|   \
E|-----------------------------|    \
                                     x4     
G|-----------------------------|    /     
D|------5-4--------------------|   /    
A|--5-7------5--7--------------|  /     
E|-----------------7--5--3--3--| /

G|--------------------------------------------------------------------|
D|--------------------------------------------------------------------|
A|-5-7-7-7-7-7-7-7-0-5-5-5-5-5-7-5------------------------------------|
E|---------------------------------7-5-5-5-5-5-5-5-5-3-3-3-3-3-3-3-3--|


---Bridge Part 1--(4:48)----------------

G|----------------------------------|
D|----------------------------------|
A|-3-3-3-3-3-3-3-3-3-3-3-0-3-0-3-0--|
E|----------------------------------|

G|---------------------------------|
D|---------------------------------|
A|-5-5-5-5-5-5-5-5-7-7-7-7-5-7-----|
E|-----------------------------7\--|

G|----------------------------------|
D|----------------------------------|
A|----------------------------------|
E|-1-1-1-0-1-1-1-0-1-1-1-1-1-0-1-0--|

G|----------------------------------|
D|----------------------------------|
A|---------2-2-2-2-3-3-3-3-5-5-7-7--|
E|-3-3-3-3--------------------------|

G|----------------------------------|
D|-----2---5-3-2--------4---5---7\--|
A|-3-3---3----------5-5---5---5-----|
E|----------------------------------|

G|------------------------------------|
D|------------------------------------|
A|-----0---3-1-0--------2---3---3/5\--|
E|-1-1---1----------3-3---3---3-------|


---Bridge Part 2--(5:01)----------

G|-----------------------------|
D|-----------------------------|
A|-----------------------------|
E|-0-0--0-0-0--0-0-0--0-0-0--0-| x2

G|--------------------|
D|--------------------|
A|--------------1h3/--|
E|-0-0--0-1-0-3-------| x2

G|-----------------------------|
D|-----------------------------|
A|-----------------------------|
E|-0-0--0-0-0--0-0-0--0-0-0--0-|

G|-------------------|
D|-------------------|
A|-0-0-3-0--00X-000--|
E|-------------------|

G|-------------------|
D|-------------------|
A|-0-0-X-0--00X-000--|
E|-------------------| x3

G|-----------------------------|
D|-----------------------------|
A|-----------------------------|
E|-0-0--0-0-0--0-0-0--0-0-0--0-| x2


---Chorus 3--(5:36)---------------

G|-----------------------------| \
D|------5-4-----7--5--4--------|  \
A|--5-7------5-----------7--5--|   \
E|-----------------------------|    \
                                     x4     
G|-----------------------------|    /     
D|------5-4--------------------|   /    
A|--5-7------5--7--------------|  /     
E|-----------------7--5--3--3--| /

G|--------------------------------------------------------------------|
D|--------------------------------------------------------------------|
A|-5-7-7-7-7-7-7-7-0-5-5-5-5-5-7-5------------------------------------|
E|---------------------------------7-5-5-5-5-5-5-5-5-3-3-3-3-3-3-3-3--| x2

G|--------------------------------------------------|
D|--------------------------------------------------|
A|-7-7-7-7-7-7-7-7-5-5-5-5-5-5-5-5-0-0-0-0-0-0-0-0--|
E|--------------------------------------------------|

G|----------------------------------| 
D|-----2---5-3-2-------4---5---7----|  
A|-3-3---3-------3-5-5---5---5---5--|   
E|----------------------------------|    
                                         
G|---------------------------------|     
D|---------------------------------|    
A|-----0---3-1-0-------2---3---5\--|   
E|-1-1---1-------1-3-3---3---3-----|  

G|------------------------------------| 
D|-----2---3h5-3-2-------4---5---7----|  
A|-3-3---3---------3-5-5---5---5---5--|   
E|------------------------------------|    
                                         
G|-----------------------------------|     
D|-----------------------------------|    
A|-----0---3-1-0-------2---3---5-5\--|   
E|-1-1---1-------1-3-3---3---3-------|  

G|-----------------|
D|-----------------|
A|-3-3-3~~~--------|
E|-----------------|

            
            
Suggest correction
Creating personal tab
Creating personal tab
You can edit any tab online and save it as your Personal.

You can edit, replace or remove any tab part or add personal notes – all changes will be seen only by you.

Personal tabs can be accessed anytime from any device, even offline.
Learn more »
comments
print report bad tab
6 comments total. Showing first comments.
0 reply
Nicknin10do 20 Jul 03, 2012 07:35 PM

Perfect.
Can't wait for the rest of the album(If you get time).

+2 reply
Jasonbts 3,117 Jul 05, 2012 04:43 AM

Nicknin10do, I plan on tabbing out the rest. I've already started Carnies and Clockwork Angels, they should (should..) be on here in about 2-3 weeks.

Thanks for the compliment!

0 reply
Tallica94 73 Jul 06, 2012 03:19 PM

Great work man! Excellent tab! Hope you tab the other songs on the album too! :D

guest
You may want to rate the tab now too:
select rating
Wanna post a correction for this tab? Suggest correction