Oops, an error
Loading. Please wait.

The Main Monkey Business bass

version 1
version 1

Whole song

Interactive

by Rush
3,942 views 3 this week
2 commentsread comments
1 2 3 4 5
x 6
add to favorites
×
Save as Personal and add changes to this tab that will be seen only by you. Learn more ›
×
You can save this tab as Personal to edit and correct it or add notes. All changes will be seen only by you. Learn more »
launch autoscroll
font size
0
reset
guitar tuner
backing track
0:00
0:00
edit
Autoscroll
slow
fast
+/-
esc
set tempo
stop
Author
Difficulty
Standard Tuning: E-A-D-G

Intro:

G|-----------------------------------------------|
D|-10-10-10-9-9-9-7-7-7--------------------------|
A|----------------------------10-10-10-7-7-7-8~~-|
E|-----------------------------------------------|

Verse First Time:

G|------------------------------------------------------------------------|x4
D|-10h12-12-12-10h12-12-12-10/15-15-15-10h12-12-12-10h12-12-12------------|
A|------------------------------------------------------------10-12-10-12-|
E|------------------------------------------------------------------------|

Chorus Part 1:

G|-------------------------------------------|
D|-10-10-10-9-9-9-7--------------------------|
A|-----------------7/14-12-10-10-9-9-7~------|
E|-------------------------------------------|

Chorus Part 2:

G|-----------------------------------------|Whole thing x2
D|-10-10-10-9-9-9-7------------------------|
A|-----------------7/14-12-10-10-9-9-8~----|
E|-----------------------------------------|

Verse Second Time:

G|-------------------------|--------------------------|x4
D|-----------------4-5-4---|---------5-------4---4----|
A|-5-7-7-5h7-7-7-5-------5-|-5-7-7-5---5-5-5---5---5--|
E|-------------------------|--------------------------|

Intro

Verse First Time

Fill/Bridge:

G|-------------------r-------|--------------------------|
D|-3---3---3---3/5-5-e-5-3/5-|--------------------------|
A|---3---3---3-------s-------|-5-5-0-5-0-5-7-5-0-3-3----|
E|-------------------t-------|-----------------------3\-|

G|--------------------------|--------------------------|-------------------|
D|-3-3---3---3---5-5---7-9\-|--------------------------|-3-3---3---3---5-5-|
A|-----3---3---3-----5------|-5-5-0-5-5-5-7-5-0-3-3----|-----3---3---3-----|
E|--------------------------|-----------------------3\-|-------------------|

G|----------|--------------------------|--------------------------|
D|---/7-5/7-|--------------------------|-3-3---3---3---3-5---7-9\-|
A|-5--------|-5-5-0-5-5-5-7-5-0-3-3----|-----3---3---3-----5------|
E|----------|-----------------------3\-|--------------------------|

Chorus Part 1:

G|-------------------------------------------|
D|-10-10-10-9-9-9-7--------------------------|
A|-----------------7/14-12-10-10-9-9-7~------|
E|-------------------------------------------|

Chorus Part 2:

G|-----------------------------------------|Whole thing x2
D|-10-10-10-9-9-9-7------------------------|
A|-----------------7/14-12-10-10-9-9-8~----|
E|-----------------------------------------|


Verse Second Time x7, Then:

G|----------------------------------------------------|
D|-----------------7-7-7-7-----------------5-5-5-5----|
A|-0-0-0-0-0-0-0-0---------0-0-0-0--------------------|
E|---------------------------------3-3-3-3------------|

Guitar Solo=Verse Second Time x2

Post-Solo:
G|--------------------r----------12-------|
D|-/14-14-12-14-14-14-e-14-12-14----14-12-|
A|--------------------s-------------------|
E|--------------------t-------------------|

G|---------------------12----14-12----------------------------------------|
D|-14-14-14-14-12-14------14-------14-12--14-14-14-12-14-14-14-12-14-14---|
A|------------------------------------------------------------------------|
E|------------------------------------------------------------------------|

Post-Post-Solo:

E|-0-0-0-0-0-0--0-0-0-0-0-0--0-0-0-0-0--0-0-0-0-0-12/-------------|

Verse Second Time x2

Guitar Break

Then you do this thing:

G|-----------|-------------------------------------------|
D|-----------|---------------------/7-7-/7-7-/7-7--------|
A|-7-5/7-5/7-|--5/7-7-5/7-5-7-7-7-7----------------------|
E|-----------|-------------------------------------------|

G|---------------------|------------------------------------|
D|---------------------|---------------------/7-7-/7-7-/7-7-|
A|-5/7-7-5/7-5-5/7-----|--5/7-7-5/7-5-5/7-7-7---------------|
E|-------------------7\|------------------------------------|

G|-------------9-9-9---|
D|---------------------|
A|-5/7-7-5/7-5/7-7-7---|
E|---------------------|

Then Verse First Time x2

Then Geddy plays some weird lower octave version of the Verse:

G|------------------------------------------------|x2
D|------------------------------------------------|
A|-3/5-5-3/5-5-3/7-7-7-3/5-5-3/5-5----------------|
E|---------------------------------9-7-9-7--------|

Fill/Bridge

Chorus Part 1&2 x2

Post-Solo

Pre-Ending:

G|-------------------------------------14-14-14-12-14-14----|
D|----------------------------------------------------------|
A|----------------------------------------------------------|
E|-0-0-0-0-0-0--0-0-0-0-0-0--0-0-0-0-0----------------------|

G|-14-14-14-12-14-14--|
D|--------------------|
A|--------------------|
E|--------------------|

Ending=Intro


Well, there it is, The Main Monkey Business, in full. If you have questions, comments, 
corrections (even though I'm 99% sure this is 99% correct), feel free to email me at 
Enjoy!

            
            
Suggest correction
Creating personal tab
Creating personal tab
You can edit any tab online and save it as your Personal.

You can edit, replace or remove any tab part or add personal notes – all changes will be seen only by you.

Personal tabs can be accessed anytime from any device, even offline.
Learn more »
comments
print report bad tab
2 comments total.
+1 reply
BosserBass 10 Dec 21, 2007 11:27 AM

This is about half wrong. Probably more.

+1 reply
Jasonbts 3,117 Feb 26, 2010 11:08 AM

a lot is there, but then again a lot isn't...

guest
You may want to rate the tab now too:
select rating
Wanna post a correction for this tab? Suggest correction