Oops, an error
Loading. Please wait.
We have an official The Spirit Of Radio tab made by UG professional guitarists. Check out the tab »
×
by Rush
85,903 views 312 this week
17 commentsread comments
1 2 3 4 5
x 46
add to favorites
×
Save as Personal and add changes to this tab that will be seen only by you. Learn more ›
×
You can save this tab as Personal to edit and correct it or add notes. All changes will be seen only by you. Learn more »
launch autoscroll
font size
0
reset
how to read this tab
guitar tuner
backing track
0:00
0:00
edit
Autoscroll
slow
fast
+/-
esc
set tempo
stop
With chorus and flanger
e|--2-p0-----0--5-p0-----0--2-p0-----0--4p2p0-----0------------------|
B|--------3-----------3-----------3------------3---------------------|
G|-------------------------------------------------------------------| x8
D|-------------------------------------------------------------------|
A|-------------------------------------------------------------------|
E|-------------------------------------------------------------------|

e|--2-p0-----0--5-p0----|
B|--------3-----------3-|
G|----------------------|
D|----------------------|
A|----------------------|
E|----------------------|

Replace chorus and flanger with light distortion
e|--------------------|
B|--------------------|
G|--------------------|
D|--2/4-2-0---0-------|
A|----------4---4-2---|
E|--------------------|

e|--------------------------------|
B|--------------------------------|
G|--------------2---2-------------| x4
D|--2-----------2---2-----------2-|
A|--2-----------0---0--2--3h4-----|
E|--0--2--3--4--------------------|

e|-------------------------------------------------------------|
B|-------------------------------------------------------------|
G|--9--------8-----8\----------------------------------------9-|
D|--9--------9-----9\6-6-6-6-6-6-6-6-6-6/7-7-7-7-7-7-7-7-7/9-9-|
A|--7--------9-----9\6-6-6-6-6-6-6-6-6-6/7-7-7-7-7-7-7-7-7/9-7-|
E|-----------7-----7\4-4-4-4-4-4-4-4-4-4/5-5-5-5-5-5-5-5-5/7---|

e|-----0-----------0----------0--------------|
B|-------0-----------0----------0---2-2------|
G|-9-9-----9\--8-8-----8\-4-4-------2-2------|
D|-9-9-----9\--9-9-----9\-2-2-----2-2-2------|
A|-7-7-----7\--9-9-----9\-x-x-----0-0-0-/4---|
E|-------------7-7-----7\-4-4--------------7-|

e|-----0-----------0----------0-------------|
B|-------0-----------0----------0---2-2-----|
G|-9-9-----9\--8-8-----8\-4-4-------2-2-----| x2
D|-9-9-----9\--9-9-----9\-2-2-----2-2-2-7-9-|
A|-7-7-----7\--9-9-----9\-x-x-----0-0-0-7-9-|
E|-------------7-7-----7\-4-4-----------5-7-|

e|-----0-----------0----------0--------------|
B|-------0-----------0----------0---2-2------|
G|-9-9-----9\--8-8-----8\-4-4-------2-2------|
D|-9-9-----9\--9-9-----9\-2-2-----2-2-2------|
A|-7-7-----7\--9-9-----9\-x-x-----0-0-0-/4---|
E|-------------7-7-----7\-4-4--------------7-|

e|-----------------7----------4-0-------------|
B|-----9-------------7------------0---2-2-----|
G|-9-9---9-9\--8-8-----8\-4-4---------2-2-----| 
D|-9-9-----9\--9-9-----9\-2-2-------2-2-2-7-9-|
A|-7-7-----7\--9-9-----9\-x-x-------0-0-0-7-9-|
E|-------------7-7-----7\-4-4-------------5-7-|


e|-----------------7----------4-0-----------------|
B|-----9-------------7------------0---------------|
G|-9-9---9-9\--8-8-----8\-4-4---------------------| 
D|-9-9-----9\--9-9-----9\-2-2-------6-6-6-6-6-7-9-|
A|-7-7-----7\--9-9-----9\-x-x-------6-6-6-6-6-7-9-|
E|-------------7-7-----7\-4-4-------4-4-4-4-4-5-7-|

e|-----0-----------0-------------------------------------------|
B|-------0-----------0-----------------------------------------|
G|-9-9-----9\--8-8---------4---------------------------------8-|
D|-9-9-----9\--9-9---------2-6-6-6-6-6-6-6-6-7-7-7-7-7-7-7-7-9-|
A|-7-7-----7\--9-9---------x-6-6-6-6-6-6-6-6-7-7-7-7-7-7-7-7-9-|
E|-------------7-7-----7\--4-4-4-4-4-4-4-4-4-5-5-5-5-5-5-5-5-7-|

 With chorus and flanger
e|--2-p0-----0--5-p0-----0--2-p0-----0--4p2p0-----0------------------|
B|--------3-----------3-----------3------------3---------------------|
G|-------------------------------------------------------------------| x14
D|-------------------------------------------------------------------|
A|-------------------------------------------------------------------|
E|-------------------------------------------------------------------|

Swich back to light distortion
Strum this so it feels right 
e|-----------------7---7-----0-0---0-0---------------|
B|-----------------7---7-----0-0---0-0---------------|
G|-9-9-9-9-9-9-8-8-8-8-8-8-4-4-4-4-4-4-------------8-| x4
D|-9-9-9-9-9-9-9-9-9-9-9-9-2-2-2-2-2-2-6-6-6-6-7/9-9-|
A|-7-7-7-7-7-7-9-9-9-9-9-9-x-x-x-x-x-x-6-6-6-6-7/9-9-|
E|-------------7-7-7-7-7-7-2-2-2-2-2-2-4-4-4-4-5/7-7-|

e|-----0-----------0-------------------------------------------|
B|-------0-----------0-----------------------------------------|
G|-9-9-----9\--8-8---------4---------------------------------8-|
D|-9-9-----9\--9-9---------2-6-6-6-6-6-6-6-6-7-7-7-7-7-7-7-7-9-|
A|-7-7-----7\--9-9---------x-6-6-6-6-6-6-6-6-7-7-7-7-7-7-7-7-9-|
E|-------------7-7-----7\--4-4-4-4-4-4-4-4-4-5-5-5-5-5-5-5-5-7-|
 
With chorus and flanger
e|--2-p0-----0--5-p0-----0--2-p0-----0--4p2p0-----0------------------|
B|--------3-----------3-----------3------------3---------------------|
G|-------------------------------------------------------------------| x12
D|-------------------------------------------------------------------|
A|-------------------------------------------------------------------|
E|-------------------------------------------------------------------|

e|-0--0--0--0--0--0--0-------------------------------------------------------|
B|-0--0--0--0--0--0--0---7--7--7--7--7--8--7\--9-9-9-9-10-9-10\7-7-7-7-8-7-8-|
G|-9--9--9--9--9--9--9\--7--7--7--7--7--7--7\--9-9-9-9-9--9-9\-7-7-7-7-7-7-7-|
D|-9--9--9--9--9--9--9\--7--7--7--7--7--7--7\--9-9-9-9-9--9-9\-7-7-7-7-7-7-7-|
A|-7--7--7--7--7--7--7\--5--5--5--5--5--5--5\--7-7-7-7-7--7-7\-5-5-5-5-5-5-5-|
E|-0--0--0--0--0--0--0-------------------------------------------------------|

Light distortion again
e|------------------------------------------------------------------|
B|-9-9-9-9-9-9-9-9-9-7-7-7-7-7-7-7-7-9-9-9-9-9-9-9-9-7-7-7-7-7-7-7-7|
G|-9-9-9-9-9-9-9-9-9-7-7-7-7-7-7-7-7-9-9-9-9-9-9-9-9-7-7-7-7-7-7-7-7|
D|-9-9-9-9-9-9-9-9-9-7-7-7-7-7-7-7-7-9-9-9-9-9-9-9-9-7-7-7-7-7-7-7-7|
A|-7-7-7-7-7-7-7-7-7-5-5-5-5-5-5-5-5-7-7-7-7-7-7-7-7-5-5-5-5-5-5-5-5|
E|------------------------------------------------------------------|


e|-----0-----------0----------0-------------|
B|-------0-----------0----------0---2-2-----|
G|-9-9-----9\--8-8-----8\-4-4-------2-2-----| 
D|-9-9-----9\--9-9-----9\-2-2-----2-2-2-7-9-|
A|-7-7-----7\--9-9-----9\-x-x-----0-0-0-7-9-|
E|-------------7-7-----7\-4-4-----------5-7-|

e|-----0-----------0-------------------------------------------|
B|-------0-----------0-----------------------------------------|
G|-9-9-----9\--8-8---------4---------------------------------8-|
D|-9-9-----9\--9-9---------2-6-6-6-6-6-6-6-6-7-7-7-7-7-7-7-7-9-|
A|-7-7-----7\--9-9---------x-6-6-6-6-6-6-6-6-7-7-7-7-7-7-7-7-9-|
E|-------------7-7-----7\--4-4-4-4-4-4-4-4-4-5-5-5-5-5-5-5-5-7-|

With chorus and flanger
e|--2-p0-----0--5-p0-----0--2-p0-----0--4p2p0-----0------------------|
B|--------3-----------3-----------3------------3---------------------|
G|-------------------------------------------------------------------| x2
D|-------------------------------------------------------------------|
A|-------------------------------------------------------------------|
E|-------------------------------------------------------------------|

Distortion again
e|---------------------------------------------------------|
B|--3-3-3--------------------------------------------------|
G|---------5-4-2-2-2-2-------------------------------------|
D|----------------------5-4-2-4-2----------2/4-2-0---0-----|
A|---------------------------------5-4-------------4---4-2-|
E|--------------------------------------5------------------|

e|--------------------------------|
B|--------------------------------|
G|--------------2---2-------------| x4
D|--2-----------2---2-----------2-|
A|--2-----------0---0--2--3h4-----|
E|--0--2--3--4--------------------|

e|----------------------------------|
B|--------9-----9--------5--------7-|
G|o-------9-----9--------6--------8-| x2
D|o-------9--9--9--------7--------9-|
A|--7--7-----7-----7--7-----9--9----|
E|----------------------------------|
    PM PM    PM      PM PM    PM PM    

e|--------------------------|
B|-9-----9-9---------7------|
G|-9-----9-9---------8------|
D|-9--9--9-9---------9------|
A|----7--------11-11-11-----|
E|--------------------------|
      PM       PM PM

e|--------------------------------|
B|--------------------------------|
G|--------------2---2-------------| x2
D|--2-----------2---2-----------2-|
A|--2-----------0---0--2--3h4-----|
E|--0--2--3--4--------------------|

e|----------------------------------|
B|--------9-----9--------5--------7-|
G|o-------9-----9--------6--------8-| x2
D|o-------9--9--9--------7--------9-|
A|--7--7-----7-----7--7-----9--9----|
E|----------------------------------|
    PM PM    PM      PM PM    PM PM    

e|--------------------------------|
B|--------------------------------|
G|--------------2---2-------------| x2
D|--2-----------2---2-----------2-|
A|--2-----------0---0--2--3h4-----|
E|--0--2--3--4--------------------|

Solo: Use wah
e|-----------------------------------------------------------------|
B|-15b-15br12-14b-12-14-12b-12br-12b-12br-12b-12br-12b-12br-12-10~~|
G|-----------------------------------------------------------------|
D|-----------------------------------------------------------------|
A|-----------------------------------------------------------------|
E|-----------------------------------------------------------------|

e|-12--12----12----12------12-----12----12----12--------17b-------------|
B|--15b---15b----15b----15b---15b-----15b--15b-----15-------------------|
G|----------------------------------------------------------------------|
D|----------------------------------------------------------------------|
A|----------------------------------------------------------------------|
E|----------------------------------------------------------------------|

Press down on whammy then slowly raise it up
e|------|
B|------|
G|-9~~~-|
D|-9~~~-|
A|-7~~~-|
E|------|

Tremolo pick this section with wah
e|------------------------------------------------------------------------|
B|------------------------------------------------------------------------|
G|-7----6----7------9-----9/-11--11---12---11----12-----------------------|
D|-9----8----9-----11-----11/13--13---14---13----14-----------------------|
A|------------------------------------------------------------------------|
E|------------------------------------------------------------------------|

e|-15-12------------------|
B|-------15-12----17b20~~-|
G|-------------12---------|
D|------------------------|
A|------------------------|
E|------------------------|

Don't use wah here
e|--------------------------------|
B|--------------------------------|
G|--------------2---2-------------| x3
D|--2-----------2---2-----------2-|
A|--2-----------0---0--2--3h4-----|
E|--0--2--3--4--------------------|

e|-------------|
B|-------------|
G|-------------| x2
D|--2----------|
A|--2----------|
E|--0--2--3--4-|

With chorus and flanger
e|--2-p0-----0--5-p0-----0--2-p0-----0--4p2p0-|
B|--------3-----------3-----------3-----------|
G|--------------------------------------------|
D|--------------------------------------------|
A|--------------------------------------------|
E|--------------------------------------------|

e|-------------------------------|
B|-------------------------------|
G|-9---9-----------------------9-|
D|-9---9-----------------------9-|
A|-7---7-----------------------7-|
E|-0---0-----------------------0-|

***********************************
| /   Slide up
| \   Slide down
| h   Hammer-on
| p   Pull-off
| ~   Vibrato
| x   Dead note
| b   Bend
| br  Bend release
***********************************



            
            
Suggest correction
Creating personal tab
Creating personal tab
You can edit any tab online and save it as your Personal.

You can edit, replace or remove any tab part or add personal notes – all changes will be seen only by you.

Personal tabs can be accessed anytime from any device, even offline.
Learn more »
comments
print report bad tab
17 comments total. Showing first comments.
-1 reply
rayIII 643 Oct 16, 2005 12:11 PM

wow very confusing dude

0 reply
jack_demo 10 Jan 06, 2007 09:34 AM

nice, for added effect a little bit of echo/delay makes it sound more realistic. but overall v.good *****

+3 reply
JY_rules 31 Oct 13, 2007 12:49 PM

I'm pretty sure he used a phaser in the intro. Whatever...
Great tab, but, I agree, very very confusing.

guest
Wanna post a correction for this tab? Suggest correction