Oops, an error
Loading. Please wait.

Time Stand Still drums

version 1
version 1

Whole song

Interactive

by Rush
433 views 1 this week
no commentswrite comment
1 2 3 4 5
3 more votes to show rating
add to favorites
×
Save as Personal and add changes to this tab that will be seen only by you. Learn more ›
×
You can save this tab as Personal to edit and correct it or add notes. All changes will be seen only by you. Learn more »
launch autoscroll
font size
0
reset
guitar tuner
edit
Autoscroll
slow
fast
+/-
esc
set tempo
stop
Author
NOT MY TAB. I just thought it would be good to have these here on UG. Credit goes to those below.



Rush: Time Stand Still
From the album Hold Your Fire (Mercury Records)
Copyright 1987 Core Music Publishing
Music by Lee and Lifeson
Lyrics by Peart

Comments/corrections to Chris Marquardt 

Transcribed by Chris Marquardt

Special Notations:

There is some timbale throughout the song, noted as "T" on the tom line
There are also temple blocks during the choruses, in two pitches, noted
"A" (low) and "B" (high) on the upper tom line.

                           >     >     >     >
   w q q q  H q s E q q  h s^s^e^s^s^e^s^s^e^q q q    q e e e e e e
C  ----C-C-|C-------C-C-|C---------------------C-C-|  C-------------|
H  --------|------------|--------------------------|  --X-X-X-X-X-X-|
S7:--------|------------|--------------------------|4:--X-------X---|
T4:--------|--TTT-T-----|--T-T-T-T-T-T-T-T-T-F-----|4:--------------|
K  ----X-X-|X-------X-X-|X---------------------X-X-|  X-------X---X-|
              *1/4-note roll                 *flam    verse 1

  e e e e e e e e  e e e e e e e e  e e e e e e e e
C ----------------|----------------|----------------|    |    |
H X-X-X-X-X-X-X-O-|X-X-X-X-X-X-X-X-|X-X-X-X-X-X-X-O-| 2  | 2  |
S ----X-------X---|----X-------X---|----X-------X---|.//.|.//.|
K X-----X---X-----|X-X-------X---X-|X-----X---X-----|    |    |

  e e e e e e e e  e e e e e e e e  e e e e e e e e  e e e e e e e e
C ----------------|----------------|----------------|----------------|    |
H X-X-X-X-X-X-X-X-|X-X-X-X-X-----O-|X-X-X-X-X-X-X-X-|X-X-X-X-X-X-X-O-| 2  |
S ----X-------X---|----X-----F-F---|----X-------X---|----X-------X---|.//.|
K X-X-------X---X-|X-----X-X-------|X-X-------X---X-|X-----X---X-----|    |

  e e e e e e e e  e e e e e e e e  e e e e e e e e  e e e e e e e s s
C ----C-----------|----------------|----------------|------------------|
H X-X---X-X-X-X-X-|X-X-X-X-X-X-X-O-|X-X-X-X-X-X-X-X-|X-X-X-X-X-H-------|
S ----X-------X---|----X-------X---|----X-------X---|----X-------X-X-X-|
K X-X-------X---X-|X-----X---X-----|X-X-------X---X-|X-----X---X---X---|

  q e e e s s s s e  e s s e e s s s s e e  e e e e e e e e  e e e e e e e e
C C-B-B-B-B-B---B-B-|B-B-B---B-B---B---B-B-|C-B---B---B---B-|--B---B---B---B-|
H ------------------|----------------------|----------------|----------------|
S --X---------X-----|------X-----X-----X---|------------X---|------------X---|
T ------------------|----------------------|--------B-------|------A---------|
T ------------------|----------------------|----3-3---------|----5-----------|
K X---X---X-X-----X-|X-X-X---X-----X-X---X-|X---X---X---X---|X---X---X---X---|

                       e e e e e e e e  e e e e e e e e    q q q q q q q
C |    |    |    |    |--B---B---B---B-|--B---B---B-----|  C---------C-C-|
H |    |    |    |    |----------------|----------------|  --------------|
S | 2  | 2  | 2  | 2  |------------X---|------------X---|7:--S---S-------|
T |.//.|.//.|.//.|.//.|--------B-------|------A---------|4:--------------|
T |    |    |    |    |----3-3---------|----5-----------|  --8---8-------|
K |    |    |    |    |X---X---X---X---|X---X---X---X-X-|  X-X---X---X-X-|
   *no crash

                             > >     >       > >
  q q q q q q e s s    e e e s s s s s s s s s s
C C---------C-C-----|  C-------------------------|
H ------------------|  --X---X-X-X-X-X-X---X-X-X-|
S --X---X-------X-X-|4:----X-------------X-------|
T --8---8-----------|4:--------------------------|
K X-X---X---X-X-----|  X---X-----X-------X-------|

      >       > >     >       > >          >       > >   > >
  s s s s s s s s s s s s s s s s      s s s s s s s s s s e s s s s
C --------------------------------|   |------------------------------|
H X-X-X-X---X-X-X-X-X-X-X---X-X-X-|   |X-X-X-X---X-X-X-X-X-H-------X-|
S --------X---------------X-------|./.|--------X-------------X-X-X---|
K X-------X-------X-------X-------|   |X-------X-------X-----X---X---|

        > >     >       > >      >       > >     >       > >
  e e e s s s s s s s s s s  s s s s s s s s s s s s s s s s
C C-------------------------|--------------------------------|   |
H --X---X-X-X-X-X-X---X-X-X-|X-X-X-X---X-X-X-X-X-X-X---X-X-X-|   |
S ----X-------------X-------|--------X---------------X-------|./.|
K X---X-----X-------X-------|X-------X-------X-------X-------|   |

  s s e e e s s e e e  q e e e s s s s e  e s s e e e s s s s e
C --------------------|C-B-B-B-B-B---B-B-|B-B-B---B-B-B-B---B-B-|   |
H X-X-H---------------|------------------|----------------------|   |
S ------X-X-X-X-------|--X---------X-----|------X---------X-----|./.|
T --------------5-6-7-|------------------|----------------------|   |
K X---X---------------|X---X---X-X-----X-|X-X-X---X---X-X-----X-|   |

  e s s e e s s s s e s s  w  h e e q    q q q q q q q  w q q q
C B-B-B---B-B---B---B-B---|C-|C-------|  C---------C-C-|C---C-C-|
H ------------------------|--|--------|  --------------|--------|
S ------X-----X-----X-X-X-|--|--------|7:--X---X-------|--------|4:
T ------------------------|--|----7-7-|4:--------------|--------|4:
T ------------------------|--|----8-8-|  --8---8-------|--------|
K X-X-X---X-------X-------|X-|X-------|  X-X---X---X-X-|X---X-X-|

  q e e e e e e  e e e e e e e e  e e e e e e e e  e e e e e e e e
C C-------------|----------------|----------------|----------------|    |
H --X-X-X-X-X-X-|X-X-X-X-X-X-X-O-|X-X-X-X-X-X-X-X-|X-X-X-X-X-X-X-O-| 2  |
S --X-------X---|----X-------X---|----X-------X---|----X-------X---|.//.|
K X-------X---X-|X-----X---X-----|X-X-------X---X-|X-----X---X-----|    |

  e e e e e e e e  e e e e e e e s s  e e q e e e e  e e e e e e e e
C ----------------|------------------|----C---------|----------------|
H X-X-X-X-X-X-X-X-|X-X-X-X-H---------|------X-X-X-X-|X-X-X-X-X-X-X-O-|
S ----X-------X---|----X-----X-X-X-X-|----X-----X---|----X-------X---|
K X-X-------X---X-|X-----X-X-X-------|X-X-----X---X-|X-----X---X---X-|

  e e e e e e e e  e e e e e e e e  e e e e e e e e  e e e e e e e e
C ----------------|----------------|----C-----------|----------------|
H X-X-X-X-X-X-X-X-|X-X-X-X-X-X-X-X-|O-X---X-X-X-X-X-|X-X-X-X-X-X-X-O-|
S ----X-------X---|----X-------X---|----X-------X---|----X-------X---|
K X-X-------X---X-|X-----X---X---X-|X-X-------X---X-|X-----X---X-----|

  e e e e e e e s s  q e e e s s s s e  e s s e e s s s s s s s s
C ------------------|C-B-B-B-B-B---B-B-|B-B-B---B-B---B---B---B---|
H X-X-X-X-----------|------------------|--------------------------|
S ----X---X-X-X-X-X-|--X---------X-----|------X-----X-----X---X-X-|
K X-----------------|X---X---X-X-----X-|X-X-X---X-----X-X---X-----|

  e e e e e e e e  e e e e e e e e            e e e e e e e e
C C-B---B---B---B-|--B---B---B---B-|    |    |--B---B---B---B-|
H ----------------|----------------|    |    |----------------|
S ------------X---|------------X---| 2  | 2  |------------X---|
T --------B-------|------A---------|.//.|.//.|--------B-------|
T ----3-3---------|----5-----------|    |    |----3-3---------|
K X---X---X---X---|X---X---X---X---|    |    |X---X---X---X---|

                                                  > >     >       > >
  e e e e e e e e    q q q q q e s s e e    e e e s s s s s s s s s s
C --B---B---B-----|  C---------C-----C-C-|  C-------------------------|
H ----------------|  --------------------|  --X---X-X-X-X-X-X---X-X-X-|
S ------------X---|7:--X---X-----X-X-----|4:----X-------------X-------|
T ------A---------|4:--------------------|4:--------------------------|
T ----5-----------|  --8---8-------------|  --------------------------|
K X---X---X---X---|  X-X---X---X-----X-X-|  X---X-----X-------X-------|

      >       > >     >       > >          >       > >
  s s s s s s s s s s s s s s s s      s s s s s s s s s s s s s s s s
C --------------------------------|   |--------------------------------|
H X-X-X-X---X-X-X-X-X-X-X---X-X-X-|   |X-X-X-X---X-X-X-----X-X---X-----|
S --------X---------------X-------|./.|--------X---------------X---X-X-|
T --------------------------------|   |----------------2-2-------------|
K X-------X-------X-------X-------|   |X-------X-------X-------X-------|

          > >     >       > >      >       > >     >       > >
  e e s s s s s s s s s s s s  s s s s s s s s s s s s s s s s
C C---------------------------|--------------------------------|
H --X---X-X-X-X-X-X-X---X-X-X-|X-X-X-X---X-X-X-X-X-X-X---X-X-X-|
S ----X---------------X-------|--------X---------------X-------|
K X---X-------X-------X-------|X-------X-------X-------X-------|

      >         >   >           >    >           >   >
  s s s s s s s s s s s s s s s s  s s s s s s s s s s s s s s s s
C --------------------------------|--------------------------------|
H X-X-X-X---X-X---X---O-O---X-X---|X---O-O---X-X---X---O-----------|
S --------X---------------X-------|--------X---------------X-x-X-X-|
T --------------T---T-----------T-|--T-----------T---T---T---------|
K X-------X-------X-------X-------|X-------X-------X-------X-------|

          > >     >       > >      >       > >     >       > >
  e e s s s s s s s s s s s s  s s s s s s s s s s s s s s s s
C C---------------------------|--------------------------------|   |
H --X---X-X-X-X-X-X-X---X-X-X-|X-X-X-X---X-X-X-X-X-X-X---X-X-X-|   |
S ----X---------------X-------|--------X---------------X-------|./.|
K X---X-------X-------X-------|X-------X-------X-------X-------|   |

      >     > >                >   > >       >       > >
  s s s s s s e s s e e s s  e e s s s s s s s s s s s s
C --------------------------|C---------------------------|
H X-X-X-X---X-X-------------|--X---X-X-X-X-X-X-X---X-X-X-|
S --------X-----------------|----X---------------X-------|
T --------------3-3-3-4-5-5-|----------------------------|
K X-------X-----X-----X-----|X---X-------X-------X-------|

      >       > >     >       > >      >       > >     >     > >
  s s s s s s s s s s s s s s s s  s s s s s s s s s s s s s s e
C --------------------------------|------------------------------|
H X-X-X-X---X-X-X-X-X-X-X---X-X-X-|X-X-X-X---X-X-X-X-X-X-X---X-X-|
S --------X---------------X-------|--------X---------------X-----|
K X-------X-------X-------X-------|X-------X-------X-------X-----|

  e s s e e s s e e s s  q e e e s s s s e  e s s e e e s s s s e
C ----------------------|C-B-B-B-B-B---B-B-|B-B-B---B-B-B-B---B-B-|
H ----------------------|------------------|----------------------|
S ----------------------|--X---------X-----|------X---------X-----|
T 2F3-3---4F5-5---6F7-7-|------------------|----------------------|
K X-----X---X-----X-----|X---X---X-X-----X-|X-X-X---X---X-X-----X-|
  *flams on toms 2, 4, 6

  e s s e e e s s s s e  e s s e e s s s s s e s  w  h e e q
C B-B-----B-B-B-B---B-B-|B-B-B---B-B---B-B---C---|C-|C-------|
H ----------------------|------------------------|--|--------|
S ------X---------X-----|------X-----X-----X---X-|--|--------|7:
T ----------------------|------------------------|--|----7-7-|4:
T ----------------------|------------------------|--|----8-8-|
K X-X-X---X---X-X-----X-|X-X-X---X-------X---X---|X-|X-------|

  q h h q q  q q q q q q q  e e e e e e e e e e e e e e
C C-----C-C-|C---------C-C-|C---------------------------|
H ----------|--------------|--X-X-X-X-X-X-X-X-X-X-X-X-O-|
S --X-X-----|--Rr--Rr------|----X-------X-------X-----X-|
T --8-8-----|--------------|----------------------------|
K X-X-X-X-X-|X---------X-X-|X-X-X-X-X-X-X-X-X-X-X-X-X-X-|
               Rr=crush rolls

  e e e e e e e e e e e e e e          e e e e e e e e e e e e e e
C ----------------------------|   |   |----------------------------|   |
H X-X-X-X-X-X-X-X-X-X-X-X-X-O-|   |   |X-X-X-X-X-X-X-X-X-O-X-X-X-O-|   |
S ----X-------X-------X-----X-|./.|./.|----X-------X-----X-------X-|./.|
K X-X-X-X-X-X-X-X-X-X-X-X-X-X-|   |   |X-X-X-X-X-X-X-X-X-X-X-X-X-X-|   |

               e e e e e e e e e e e s s e e    q e e e s s s s e
C |   |   |   |------------------------------|  C-B-B-B-B-B---B-B-|
H |   |   |   |H-H-H-H-H-H-H-H-H-H-H---------|4:------------------|
S |./.|./.|./.|----X---X-------X---X-X-X-X---|4:--X---------X-----|
K |   |   |   |X-X-X-X-X-X-X-X-X-X-X-X---X-X-|  X---X---X-X-----X-|

  e s s e e s^s^s^s s s s s s  e e e e e e e e  e e e e e e e e
C B-B-B---B-------------------|C-B---B---B---B-|--B---B---B---B-|    |    |
S ------X---X-X-X-X-X-X-X-X-X-|------------X---|------------X---| 2  | 2  |
T ----------------------------|--------B-------|------A---------|.//.|.//.|
T ----------------------------|----3-3---------|----5-----------|    |    |
K X-X-X---X-X-----X---X---X---|X---X---X---X---|X---X---X---X---|    |    |
                                                                 *no crash

  e e e e e e e e  e e e e e e e e    e e e e e e e e e e e e e e
C --B---B---B---B-|--B---B---B-----|  ----------------------------|   |   |
S ------------X---|------------X---|7:X---X---X---X---X---X---X---|   |   |
T --------B-------|------A---------|4:----------------------------|./.|./.|
T ----3-3---------|----5-----------|  7---7---7---7---7---7---7---|   |   |
K X---X---X---X---|X---X---X---X-X-|  X-X-X-X-X-X-X-X-X-X-X-X-X-X-|   |   |

                    > > > > > > > > > >      >     > >     >       > >
  e e e e e e e e e s s s s s s s s s s    e e s s s s s s s s s s s s
C --------------------------------------|  C---------------------------|
H --------------------------------------|4:--X---X-X-X-X-X-X-X---X-X-X-|
S --------X-X-X-X-X-X-X-X-X-X-X-X-X-X-X-|4:----X---------------X-------|
T 7-7-7-7-7-7-7-7-7---------------------|  ----------------------------|
K X-X-X-X-X-X-X-X-X-X---X---X---X---X---|  X---X-------X-------X-------|
                                                  > >     >       > >          >       > >   > >
  s s s s s s s s s s s s s s s s      s s s s s s s s s s e s^s^s^s^s^s^
C --------------------------------|   |---------------------------------- |
H X-X-X-X---X-X-X-X-X-X-X---X-X-X-|   |X-X-X-X---X-X-X-X-X-O-------------:|
S --------X---------------X-------|./.|--------X-------------X-X-X-X-X-X-:|
K X------ X-------X-------X-------|   |X-------X-------X-----X----------- |
                                  |__ << 1st ending                     >>

      >       > >     >       > >            > >   > > >
  s s s s s s s s s s s s s s s s  s s s s e s s s s s s s s s s
C --------------------------------|------------------------------ |
H X-X-X-X---X-X---X-X-X-X---X-X---|X-X-X-X-----------------------:|
S --------X---------------X-------|--------X-X-X---X-X-X--------- |
T --------------T---------------T-|----------------------5-5-6-6-:|
K X-------X-------X-------X-------|X-------X-----X-------X------- |
  |__ << 2nd ending                                             >>

      >       > >     >       > >      >
  s s s s s s s s s s s s s s s s  s s s s e s s e e s s e
C --------------------------------|------------------------ |
H X-X-X-X---X-X-X-X-X-X-X---X-X-X-|X-X-X-X-----------------:|
S --------X---------------X-------|--------X--------------- |
T --------------------------------|----------4-4-4-5-6-6-6-:|
K X-------X-------X-------X-------|X-------X-----X---X----- |
  |__ << 3rd ending                                       >>

      >       > >     >     >
  s s s s s s s s s s s s e e  e e e s s s s e e s s  q e e e s s s s e
C ----------------------------|----------------------|C-B-B-B-B-B---B-B-|
H X-X-X-X---X-X---X-X-X-X---X-|----------------------|------------------|
S --------X---------------X---|----------------------|--X---------X-----|
T --------------T-------------|2F3-4F5-5---6-6-7F8-8-|------------------|
K X-------X-------X-------X---|X---X-----X-----X-----|X---X---X-X-----X-|
  |__ << 4th ending            *flams on toms 2,4,7

  e s s e e e s s s s e      e s s e s s s s s s s s e  q e e e s s s s e
C B-B-B---B-B-B-B---B-B-|   |B-B-B---B-----------------|C-B-B-B-B-B---B-B-|
H ----------------------|   |--------------O-P-----O-P-|------------------|
S ------X---------X-----|./.|------X---X-X---X-X-X---X-|--X---------X-----|
K X-X-X---X---X-X-----X-|   |X-X-X---X---X---X---X---X-|X---X---X-X-----X-|

  e s s e e e s s s s e  e s s e e e s s e e  e s^s^s^e e s^s^s^e e s s
C B-B-B---B-B-B-B---B-B-|B-B-B---B-B-B-B---B-|--------------------------|
S ------X---------X-----|------X---------X---|F-------------------------|
T ----------------------|--------------------|--4-4-4-4-5-6-6-6-6-7-7-7-|
K X-X-X---X---X-X-----X-|X-X-X---X---X-X---X-|X-X-----X-X-X-----X-------|

  w  w    w q q q  w
C C-|C-|7:C---C-C-|C-||
K X-|X-|4:X---X-X-|X-||END

            
            
Suggest correction
Creating personal tab
Creating personal tab
You can edit any tab online and save it as your Personal.

You can edit, replace or remove any tab part or add personal notes – all changes will be seen only by you.

Personal tabs can be accessed anytime from any device, even offline.
Learn more »
Give kudos to tab author, rate the tab!
1 2 3 4 5
comments
print report bad tab
guest
You may want to rate the tab now too:
select rating
Wanna post a correction for this tab? Suggest correction