Oops, an error
Loading. Please wait.

A Picture Of Three Children Zolla Boys chords

121 views 3 this week
no commentswrite comment
1 2 3 4 5
3 more votes to show rating
add to favorites
×
Save as Personal and add changes to this tab that will be seen only by you. Learn more ›
×
You can save this tab as Personal to edit and correct it or add notes. All changes will be seen only by you. Learn more »
launch autoscroll
font size
0
reset
transpose
0
reset
simplify chords
display chords
guitar tuner
edit
Autoscroll
slow
fast
+/-
esc
set tempo
stop
Strumming
There is no strumming pattern for this song yet. and get +5 IQ
[Legend]
h - hammer on/pull off

[Intro]
              D                                                         Em
E |--------0--2-----2--0--2----|--3--2--0-------------------|-----0--2--3-----3--5--3----|-----2--0-------|
B |--2--3----------------------|--------------3-------------|--3-------------------------|----------------|
G |----------------------------|----------------------------|----------------------------|----------------|
D |----------------------------|----------------------------|----------------------------|----------------|
A |----------------------------|----------------------------|----------------------------|----------------|
E |----------------------------|----------------------------|----------------------------|----------------|

              A                                                            G        A                 D
e |-----0--2--3-----3--2--3----|--2-----0-----0-----0-------|--2h-0----------------------|----------------|
B |--3-------------------------|----------------------------|--------3--------------0h---|--2h--3---------|
G |----------------------------|----------------------------|-----------2--2h-4--4-------|----------------|
D |----------------------------|----------------------------|----------------------------|----------------|
A |----------------------------|----------------------------|----------------------------|----------------|
E |----------------------------|----------------------------|----------------------------|----------------|


[Verse 1]
D                                     Em
When that three day battle ended, one man in blue was found
        A                                G                    D
With no name to tell his story, as they laid him in the ground
D                                       Em
Just one more unknown soldier, but held tightly to his chest
        A                                G        A          D
Was a picture of three children, dressed in their Sunday best.
 
[Verse 2]
D                                            Em
They pried it from his fingers, clutched tightly in his grasp
        A                             G                  D
Knowing it was the last thing, he'd seen before he passed
D                                  Em
The story of that picture, traveled farther north each day
        A                       G                    A  
Where all the local papers, described on their front page.

[Chorus]
G                  A                  D     D/Db        Bm
A picture of three children, in three little wooden chairs
G                  A               D                D7
Two brothers and one sister, sweet faces and dark hair
G                  A                D     D/Db        Bm 
Three angels to one soldier, whose name remains unknown
G                  A                    G            A        D
A picture of three children, whose father won't be coming home.


[Solo]
     D                                                         Em
e |----------------------------|----------------------------|----------------------------|----------------|
B |----------------------------|----------------------------|----------------------------|----------------|
G |----------------------------|--0-------------------------|-----------0-----0--2--0L---|--0-------------|
D |-----0--2--4-----4--2--4----|-----4--2-----0-------------|--0--2--4-------------------|-----4--2-------|
A |--4-------------------------|----------------------------|----------------------------|----------------|
E |----------------------------|----------------------------|----------------------------|----------------|

    A                                                         G                           D
e |----------------------------|----------------------------|----------------------------|----------------|
B |----------------------------|----------------------------|----------------------------|----------------|
G |-----------0-----0----------|--0-------------------------|----------------------------|----------------|
D |--0--2--4-----------4--2----|-----4--2-----2-----2-------|--2--4--2--0-----0----------|----------------|
A |----------------------------|----------------------------|--------------------2--0----|--0--------0--0-|
E |----------------------------|----------------------------|----------------------------|----------------|


              D                                                         Em
E |--------0--2--0--2-----2----|--3--2--0-------------------|-----0--2--3-----3--5--3----|-----2--0-------|
B |--2--3----------------------|--------------3-------------|--3-------------------------|----------------|
G |----------------------------|----------------------------|----------------------------|----------------|
D |----------------------------|----------------------------|----------------------------|----------------|
A |----------------------------|----------------------------|----------------------------|----------------|
E |----------------------------|----------------------------|----------------------------|----------------|

              A                                                         G           A               D  
e |-----0--2--3-----3--2--3----|--2-----0-----0-----0-------|--2h-0----------------------|----------------|
B |--3-------------------------|----------------------------|--------3--------------0h---|--2h--3---------|
G |----------------------------|----------------------------|-----------2--2h-4--4-------|----------------|
D |----------------------------|----------------------------|----------------------------|----------------|
A |----------------------------|----------------------------|----------------------------|----------------|
E |----------------------------|----------------------------|----------------------------|----------------|



[Verse 3]
D                                     Em
In New York a wife and mother, was waiting for some word
        A                                G         D
From the father of her children, last seen in Gettysburg
D                                        Em
When she read about that picture, found on a Union man
     A                          G                    A  
And knew her husband Amos, had held tightly in his hand.

[Chorus]
G                  A                  D     D/Db        Bm
A picture of three children, in three little wooden chairs
G                  A               D                D7
Two brothers and one sister, sweet faces and dark hair
G                  A                D     D/Db        Bm 
Three angels to one soldier, whose name was finally known
G                  A                    G            A      D
A picture of three children, whose father won't be coming home
G                         A               G        A         D
It was a picture of three children, Amos won't be coming home.




            
            
Suggest correction
Creating personal tab
Creating personal tab
You can edit any tab online and save it as your Personal.

You can edit, replace or remove any tab part or add personal notes – all changes will be seen only by you.

Personal tabs can be accessed anytime from any device, even offline.
Learn more »
Give kudos to tab author, rate the tab!
1 2 3 4 5
comments
print report bad tab
guest
You may want to rate the tab now too:
select rating
Wanna post a correction for this tab? Suggest correction