Oops, an error
Loading. Please wait.

Cigarettes tab

version 2
version 2

Whole song

Interactive

10,084 views 3 this week
no commentswrite comment
1 2 3 4 5
2 more votes to show rating
add to favorites
×
Save as Personal and add changes to this tab that will be seen only by you. Learn more ›
×
You can save this tab as Personal to edit and correct it or add notes. All changes will be seen only by you. Learn more »
launch autoscroll
font size
0
reset
how to read this tab
guitar tuner
edit
Autoscroll
slow
fast
+/-
esc
set tempo
stop
Author
-------------------------------------------------------------------------------
                             CIGARETTES - Russian Red
-------------------------------------------------------------------------------
Tabbed by: Linnell

Tuning: Capo on Fret 6

e|-----------------------------------------------------------------------|
B|-----------------------------------------------------------------------|
G|----------------0---------------0---------------0-------0-------0------|
D|---0---0---0---0---0---0---0---0---2---2---2---2---2---2---0---0-------|
A|---------------------------------3---3---3---3-------------------------|
E|-3---3---3---3---2---2---2---2-------------------0---0---2---2---------|


Just keep repeating this tab and that's the whole song.

Disclaimer:  The only other tab to this song just didn't sound right, so 
I decided to try and make my own. I'm not sure if this is completely 
correct (this is my first time creating tabs), but it is somewhere to 
start if you wish to learn this song.

I created this listening to the song on Russian Red's myspace page.  I 
found that easiest to hear the guitar.
http://www.myspace.com/russianready

            
            
Suggest correction
Creating personal tab
Creating personal tab
You can edit any tab online and save it as your Personal.

You can edit, replace or remove any tab part or add personal notes – all changes will be seen only by you.

Personal tabs can be accessed anytime from any device, even offline.
Learn more »
Give kudos to tab author, rate the tab!
1 2 3 4 5
comments
print report bad tab
guest
You may want to rate the tab now too:
select rating
Wanna post a correction for this tab? Suggest correction