Oops, an error
Loading. Please wait.

Hurt Myself tab

version 1
version 1

Whole song

1,487 views 1 this week
no commentswrite comment
1 2 3 4 5
2 more votes to show rating
add to favorites
×
Save as Personal and add changes to this tab that will be seen only by you. Learn more ›
×
You can save this tab as Personal to edit and correct it or add notes. All changes will be seen only by you. Learn more »
launch autoscroll
font size
0
reset
how to read this tab
guitar tuner
edit
Autoscroll
slow
fast
+/-
esc
set tempo
stop
Author
Difficulty
Hurt Myself by Rusty Anderson

I wish to do more on this tab. Yes, it does suck, but #1, I haven't taken lessons, and 
This tab only took me about 3 hours.

 Please tell me what you think.

Official Website-http://www.rustyanderson.com/


Intro:    E----4---------------------------------------------------------|
          B-6----6--4--6--4--2--4--2--1-------------------------2-6------|
          G-----------------------------------3--1----------1--3---------|
          D--------------------------------------------------------------|
          A--------------------------------------------------------------|
          E--------------------------------------------------------------|


   Verse:     E-4-4-4-4-4-4-4-4 | 4-4-4-4-4-4-4-4 | 1-1-1-1-1-1-1-1|
              B-1-1-1-1-1-1-1-1 | 4-4-4-4-4-4-4-4 | 2-2-2-2-2-2-2-2|
              G-1-1-1-1-1-1-1-1 | 3-3-3-3-3-3-3-3 | 1-1-1-1-1-1-1-1|
              D-1-1-1-1-1-1-1-1 | 1-1-1-1-1-1-1-1 | 3-3-3-3-3-3-3-3|
              A-----------------|-----------------|----------------|
              E-----------------|-----------------|----------------|

                Well I hope you understand   that I could never be anyone's    victim


              E-4-4-4-4-4-4-4-4 | 4-4-4-4-4-4-4-4 | 1-1-1-1-1-1-1-1|
              B-1-1-1-1-1-1-1-1 | 4-4-4-4-4-4-4-4 | 2-2-2-2-2-2-2-2|
              G-1-1-1-1-1-1-1-1 | 3-3-3-3-3-3-3-3 | 1-1-1-1-1-1-1-1|
              D-1-1-1-1-1-1-1-1 | 1-1-1-1-1-1-1-1 | 3-3-3-3-3-3-3-3|
              A-----------------|-----------------|----------------|
              E-----------------|---------------- | ---------------|

        Make a face and lose my cool, it's so natural,       yeah

   Chorus:       E-------6-6-p-4-4---|
                 B-------------------|
                 G-1-3---------------|
                 D------------------ |
                 A------------------ |
                 E------------------ |


              E-4-4-4-4-4-4-4-4 | 1-1-1-1-1-1-1-1-1-1-1-1-1-1-1-1 |4-|
              B-1-1-1-1-1-1-1-1 | 2-2-2-2-2-2-2-2-2-2-2-2-2-2-2-2 |1-|
              G-1-1-1-1-1-1-1-1 | 1-1-1-1-1-1-1-1-1-1-1-1-1-1-1-1 |1-|
              D-1-1-1-1-1-1-1-1 | 3-3-3-3-3-3-3-3-3-3-3-3-3-3-3-3 |1-|
              A-----------------|------------------------------- -|--|
              E-----------------|---------------------------------|--|

              I might be shaking outside         but inside I am fine

       E-1-1-1-1-1-1-1-1-1-1-1-1-1-1-1-1----------|
       B-2-2-2-2-2-2-2-2-2-2-2-2-2-2-2-2----------|
       G-1-1-1-1-1-1-1-1-1-1-1-1-1-1-1-1----------|
       D-3-3-3-3-3-3-3-3-3-3-3-3-3-3-3-3----------|
       A------------------------------------------|
       E------------------------------------------|
                And I wouldn't get too smug if I were you


       E-1-1-1-1-1-1-1-1-1-1-1-1-1-1-1-4|
       B-2-2-2-2-2-2-2-2-2-2-2-2-2-2-2-4|
       G-1-1-1-1-1-1-1-1-1-1-1-1-1-1-1-1|
       D-3-3-3-3-3-3-3-3-3-3-3-3-3-3-3-1|
       A--------------------------------|
       E--------------------------------|
          Your trophy doesn't look so good


      E-2-2-2-2---4---1-1-1-1-1-1-1-1---------|
      B-2-2-2-2---1---2-2-2-2-2-2-2-2---------|
      G-3-3-3-3---1---1-1-1-1-1-1-1-1---------|
      D-4-4-4-4---1---3-3-3-3-3-3-3-3---------|
      A---------------------------------------|
      E---------------------------------------|
          Cause I can hurt myself more than you ever could


          E----4-----------------------------------------------------------|
          B-6----6--4--6--4--2--4--2--1-------------------------2-6--------|
          G-----------------------------------3--1----------1--3-----------|
          D----------------------------------------------------------------|
          A----------------------------------------------------------------|
          E----------------------------------------------------------------|

            
            
Suggest correction
Creating personal tab
Creating personal tab
You can edit any tab online and save it as your Personal.

You can edit, replace or remove any tab part or add personal notes – all changes will be seen only by you.

Personal tabs can be accessed anytime from any device, even offline.
Learn more »
Give kudos to tab author, rate the tab!
1 2 3 4 5
comments
print report bad tab
guest
You may want to rate the tab now too:
select rating
Wanna post a correction for this tab? Suggest correction