Oops, an error
Loading. Please wait.

Andrea bass

376 views 1 this week
no commentswrite comment
1 2 3 4 5
2 more votes to show rating
add to favorites
×
Save as Personal and add changes to this tab that will be seen only by you. Learn more ›
×
You can save this tab as Personal to edit and correct it or add notes. All changes will be seen only by you. Learn more »
launch autoscroll
font size
0
reset
guitar tuner
edit
Autoscroll
slow
fast
+/-
esc
set tempo
stop
Author
RX-Bandits
Andrea
Halfway Between Here and There
Standard Tuning

*** h written above = harmonics ***


Verse  
                           h h 
G|----------------|----------------|
D|----------------|--------7-5-----|
A|55--33---------0|355-33--------35|
E|--------33--55--|-----------h5\--|  
                       
Pre Chorus               x2
G|--------------------|
D|--4h5--320----------|
A|55---33-----2---3-5-|
E|----------33-3-5----|

Verse  
                           h h 
G|----------------|----------------|
D|----------------|--------7-5-----|
A|55--33---------0|355-33--------35|
E|--------33--55--|-----------h5\--|  
                       
Pre Chorus               x2
G|--------------------|
D|--4h5--320----------|
A|55---33-----2---3-5-|
E|----------33-3-5----|

Verse  
                           h h 
G|----------------|----------------|
D|----------------|--------7-5-----|
A|55--33---------0|355-33--------35|
E|--------33--55--|-----------h5\--|  
                       
Pre Chorus               x2
G|--------------------|
D|--4h5--320----------|
A|55---33-----2---3-5-|
E|----------33-3-5----|

Verse  
                           h h 
G|----------------|----------------|
D|----------------|--------7-5-----|
A|55--33---------0|355-33--------35|
E|--------33--55--|-----------h5\--|  
                       
Pre Chorus               x2
G|--------------------|
D|--4h5--320----------|
A|55---33-----2---3-5-|
E|----------33-3-5----|

Chorus               x4
G|----------------|
D|----------------|
A|55533333--------|
E|--------33355555|

Pre Chorus               x2
G|--------------------|
D|--4h5--320----------|
A|55---33-----2---3-5-|
E|----------33-3-5----|

Verse  
                           h h 
G|----------------|----------------|
D|----------------|--------7-5-----|
A|55--33---------0|355-33--------35|
E|--------33--55--|-----------h5\--|  
                       
Pre Chorus               x2
G|--------------------|
D|--4h5--320----------|
A|55---33-----2---3-5-|
E|----------33-3-5----|

Chorus               x8
G|----------------|
D|----------------|
A|55533333--------|
E|--------33355555|

Bridge
G|----2-----------|----2-----------|----2-----------|----2-----------|
D|---4--2----4-2-0|---4--2----4-44-|---4--2----4-2-0|---4--2---------|
A|2-------2-------|2-------2-------|2-------2-------|2-------2-------|
E|----------------|----------------|----------------|----------------|

Chorus  
  until last time   then
G|----------------|----------------|
D|----------------|----------------|
A|55533333--------|55533333--------|
E|--------33355555|--------3-------|

Questions/Comments
hbsrx@hotmail.com

            
            
Suggest correction
Creating personal tab
Creating personal tab
You can edit any tab online and save it as your Personal.

You can edit, replace or remove any tab part or add personal notes – all changes will be seen only by you.

Personal tabs can be accessed anytime from any device, even offline.
Learn more »
Give kudos to tab author, rate the tab!
1 2 3 4 5
comments
print report bad tab
guest
You may want to rate the tab now too:
select rating
Wanna post a correction for this tab? Suggest correction