Oops, an error
Loading. Please wait.

Apparition bass

2,270 views 1 this week
no commentswrite comment
1 2 3 4 5
1 last vote to show rating
add to favorites
×
Save as Personal and add changes to this tab that will be seen only by you. Learn more ›
×
You can save this tab as Personal to edit and correct it or add notes. All changes will be seen only by you. Learn more »
launch autoscroll
font size
0
reset
guitar tuner
edit
Autoscroll
slow
fast
+/-
esc
set tempo
stop
Author
Difficulty
intermediate
Rx Bandits: Apparition
... And The Battle Begun
Bass Tab
Standard Tuning

Intro
   "ohhhhh, ahhhhhh..." (shivering)
G|------------------------------|
D|----3-5-3---------------------|     3x
A|3-6-------6-3--------3-5---3--|
E|-----------------3-6-----6----|

G|------------------------------|
D|----3-5-3---------------------|
A|3-6-------6-3--------3-5-3-6--|
E|-----------------3-6----------|

Verse
  "she said she gonna come over tonight..."
G|------------------------------|
D|----3-5-3---------------------|     4x
A|3-6-------6-3--------3-5---3--|
E|-----------------3-6-----6----|

Pre-Chorus      
  "I'm just a traveling soul..."
                3x
G|----------------|------------------|
D|----------------|------------------|
A|-----3---123----|-----5---3455-7653|
E|1--1---3-----320|3--3---5----------|

Chorus

  "and she come, creeping up slow..."
G|----------------|----------------|----------------|
D|----------------|----------------|----------------|
A|3---3-3-345-----|3---3-3-345-----|----3---123-----|
E|--5---------542-|--5---------542-|1-1---3-----320-|

G|----------------|----------------|----------------|----------------|
D|----------------|----------------|----------------|----------------|
A|3---3-3-345-----|3---3-3-345-----|----3---123-----|3---3-3-345-----|
E|--5---------542-|--5---------542-|1-1---3-----320-|--5---------542-|

Intro
  "Apparition..."
G|------------------------------|
D|----3-5-3---------------------|     3x
A|3-6-------6-3--------3-5---3--|
E|-----------------3-6-----6----|

G|------------------------------|
D|----3-5-3---------------------|
A|3-6-------6-3--------3-5-3-6--|
E|-----------------3-6----------|

Verse
  "I know she lurking the streets tonight..."
G|------------------------------|
D|----3-5-3---------------------|     4x
A|3-6-------6-3--------3-5---3--|
E|-----------------3-6-----6----|

Pre-Chorus      
  "shes just a wandering soul..."
                 3x
G|----------------|------------------|
D|----------------|------------------|
A|-----3---123----|-----5---3455-7653|
E|1--1---3-----320|3--3---5----------|

Chorus
  "and she come, creeping up slow..."
G|----------------|----------------|----------------|
D|----------------|----------------|----------------|
A|3---3-3-345-----|3---3-3-345-----|----3---123-----|
E|--5---------542-|--5---------542-|1-1---3-----320-|

G|----------------|----------------|----------------|----------------|
D|----------------|----------------|----------------|----------------|
A|3---3-3-345-----|3---3-3-345-----|----3---123-----|3---3-3-345-----|
E|--5---------542-|--5---------542-|1-1---3-----320-|--5---------542-|

Intro - 2

  "Apparition..."
G|------------------------------|
D|----3-5-3---------------------|     3x
A|3-6-------6-3--------3-5---3--|
E|-----------------3-6-----6----|

G|------------------------------|
D|----3-5-3---------------------|
A|3-6-------6-3--------3-5--3-2-|
E|-----------------3-6----------|

Breakdown
  "oh I swear I heard something..."
G|-------------------------------|
D|-------------------------------|
A|\3-------\3-------\3-----------|
E|-----3--------3--------3-2-1-0~|

Chorus
  "and she come, creeping up slow..."
G|----------------|----------------|----------------|
D|----------------|----------------|----------------|
A|3---3-3-345-----|3---3-3-345-----|----3---123-----|
E|--5---------542-|--5---------542-|1-1---3-----320-|

G|----------------|----------------|----------------|----------------|
D|----------------|----------------|----------------|----------------|
A|3---3-3-345-----|3---3-3-345-----|----3---123-----|3---3-3-345-----|
E|--5---------542-|--5---------542-|1-1---3-----320-|--5---------542-|

Intro - 2
  "Apparition..."
G|------------------------------|
D|----3-5-3---------------------|     3x
A|3-6-------6-3--------3-5---3--|
E|-----------------3-6-----6----|

G|------------------------------|
D|----3-5-3---------------------|
A|3-6-------6-3--------3-5--3-2-|
E|-----------------3-6----------|



Just play as it follows. The timing could be slightly rough getting used to
but its all good. Tab sounds correct. Have fun with it, its an amazing song!




            
            
Suggest correction
Creating personal tab
Creating personal tab
You can edit any tab online and save it as your Personal.

You can edit, replace or remove any tab part or add personal notes – all changes will be seen only by you.

Personal tabs can be accessed anytime from any device, even offline.
Learn more »
Give kudos to tab author, rate the tab!
1 2 3 4 5
comments
print report bad tab
guest
You may want to rate the tab now too:
select rating
Wanna post a correction for this tab? Suggest correction