Oops, an error
Loading. Please wait.

Howling tab

version 1
version 1

Whole song

  • This tab does not require a capo nor tuning to dro... Show more
by RY X
799 views 30 this week
2 commentsread comments
1 2 3 4 5
2 more votes to show rating
add to favorites
×
Save as Personal and add changes to this tab that will be seen only by you. Learn more ›
×
You can save this tab as Personal to edit and correct it or add notes. All changes will be seen only by you. Learn more »
launch autoscroll
font size
0
reset
how to read this tab
guitar tuner
edit
Autoscroll
slow
fast
+/-
esc
set tempo
stop
[Intro]

e|---------------------------------------------------------------------------|
B|---------------------------------------------------------------------------|
G|-----------------------0-----0---------------------------------------------|
D|-------2-----2-------------------------2-----0---------2-----0-------------|
A|---------------------------------------------------------------------------|
D|-5-5-5---5-5---5-7-7-7---7-7---7-2-2-2---2-2---2-2-2-2---2-2---2-----------|

e|---------------------------------------------------------------------------|
B|---------------------------------------------------------------------------|
G|-----------------------0-----0---------------------------------------------|
D|-------2-----2-------------------------2-----0---------2-----0-------------|
A|---------------------------------------------------------------------------|
D|-5-5-5---5-5---5-7-7-7---7-7---7-2-2-2---2-2---2-2-2-2---2-2---2-----------|


[Verse]

e|---------------------------------------------------------------------------|
B|---------------------------------------------------------------------------|
G|-----------------------0-----0---------------------------------------------|
D|-------2-----2-------------------------2-----0---------2-----0-------------|
A|---------------------------------------------------------------------------|
D|-5-5-5---5-5---5-7-7-7---7-7---7-2-2-2---2-2---2-2-2-2---2-2---2-----------|


e|---------------------------------------------------------------------------|
B|---------------------------------------------------------------------------|
G|-----------------------0-----0---------------------------------------------|
D|-------2-----2-------------------------2-----0---------2-----0-------------|
A|---------------------------------------------------------------------------|
D|-5-5-5---5-5---5-7-7-7---7-7---7-2-2-2---2-2---2-2-2-2---2-2---2-----------|


e|---------------------------------------------------------------------------|
B|---------------------------------------------------------------------------|
G|-----------------------0-----0---------------------------------------------|
D|-------2-----2-------------------------2-----0---------2-----0-------------|
A|---------------------------------------------------------------------------|
D|-5-5-5---5-5---5-7-7-7---7-7---7-2-2-2---2-2---2-2-2-2---2-2---2-----------|


e|---------------------------------------------------------------------------|
B|---------------------------------------------------------------------------|
G|-----------------------0-----0---------------------------------------------|
D|-------2-----2-------------------------2-----0---------2-----0-------------|
A|---------------------------------------------------------------------------|
D|-5-5-5---5-5---5-7-7-7---7-7---7-2-2-2---2-2---2-2-2-2---2-2---2-----------|


[Chorus]

e|-------------0-------------------------------------------------------------|
B|-------3---------------1-----0---------------------------------------------|
G|---------------------------------------0-----------------------------------|
D|---------------------------------------------4---------4-----2-------------|
A|-3-3-3---3-3---3-0-0-0---0-0---0-------------------------------------------|
D|---------------------------------2-2-2---2-2---2-0-0-0---0-0---0-----------|


e|-------------0-------------------------------------------------------------|
B|-------3---------------1-----0---------------------------------------------|
G|---------------------------------------0-----------------------------------|
D|---------------------------------------------4---------4-----2-------------|
A|-3-3-3---3-3---3-0-0-0---0-0---0-------------------------------------------|
D|---------------------------------2-2-2---2-2---2-0-0-0---0-0---0-----------|

e|-------------0-------------------------------------------------------------|
B|-------3---------------1-----0---------------------------------------------|
G|---------------------------------------0-----------------------------------|
D|---------------------------------------------4---------4-----2-------------|
A|-3-3-3---3-3---3-0-0-0---0-0---0-------------------------------------------|
D|---------------------------------2-2-2---2-2---2-0-0-0---0-0---0-----------|


e|-------------0-------------------------------------------------------------|
B|-------3---------------1-----0---------------------------------------------|
G|---------------------------------------0-----------------------------------|
D|---------------------------------------------4---------4-----4-------------|
A|-3-3-3---3-3---3-0-0-0---0-0---0-------------------------------------------|
D|---------------------------------2-2-2---2-2---2-0-0-0---0-0---0-----------|

e|---------------------------------------------------------------------------|
B|---------------------------------------------------------------------------|
G|---------------------------------------------------------------------------|
D|-------4----4--------------------------------------------------------------|
A|---------------------------------------------------------------------------|
D|-0-0-0--0-0--0-------------------------------------------------------------|

[Post-Chorus]

e|---------------------------------------------------------------------------|
B|---------------------------------------------------------------------------|
G|-----------------------0-----0---------------------------------------------|
D|-------2-----2-------------------------2-----0---------2-----0-------------|
A|---------------------------------------------------------------------------|
D|-5-5-5---5-5---5-7-7-7---7-7---7-2-2-2---2-2---2-2-2-2---2-2---2-----------|


e|---------------------------------------------------------------------------|
B|---------------------------------------------------------------------------|
G|-----------------------0-----0---------------------------------------------|
D|-------2-----2-------------------------2-----0---------2-----0-------------|
A|---------------------------------------------------------------------------|
D|-5-5-5---5-5---5-7-7-7---7-7---7-2-2-2---2-2---2-2-2-2---2-2---2-----------|


e|---------------------------------------------------------------------------|
B|---------------------------------------------------------------------------|
G|-----------------------0-----0---------------------------------------------|
D|-------2-----2-------------------------2-----0---------2-----0-------------|
A|---------------------------------------------------------------------------|
D|-5-5-5---5-5---5-7-7-7---7-7---7-2-2-2---2-2---2-2-2-2---2-2---2-----------|


e|---------------------------------------------------------------------------|
B|---------------------------------------------------------------------------|
G|-----------------------0-----0---------------------------------------------|
D|-------2-----2-------------------------2-----0---------2-----0-------------|
A|---------------------------------------------------------------------------|
D|-5-5-5---5-5---5-7-7-7---7-7---7-2-2-2---2-2---2-2-2-2---2-2---2-----------|

[Verse 2]

e|---------------------------------------------------------------------------|
B|---------------------------------------------------------------------------|
G|-----------------------0-----0---------------------------------------------|
D|-------2-----2-------------------------2-----0---------2-----0-------------|
A|---------------------------------------------------------------------------|
D|-5-5-5---5-5---5-7-7-7---7-7---7-2-2-2---2-2---2-2-2-2---2-2---2-----------|


e|---------------------------------------------------------------------------|
B|---------------------------------------------------------------------------|
G|-----------------------0-----0---------------------------------------------|
D|-------2-----2-------------------------2-----0---------2-----0-------------|
A|---------------------------------------------------------------------------|
D|-5-5-5---5-5---5-7-7-7---7-7---7-2-2-2---2-2---2-2-2-2---2-2---2-----------|


e|---------------------------------------------------------------------------|
B|---------------------------------------------------------------------------|
G|-----------------------0-----0---------------------------------------------|
D|-------2-----2-------------------------2-----0---------2-----0-------------|
A|---------------------------------------------------------------------------|
D|-5-5-5---5-5---5-7-7-7---7-7---7-2-2-2---2-2---2-2-2-2---2-2---2-----------|


e|---------------------------------------------------------------------------|
B|---------------------------------------------------------------------------|
G|-----------------------0-----0---------------------------------------------|
D|-------2-----2-------------------------2-----0---------2-----0-------------|
A|---------------------------------------------------------------------------|
D|-5-5-5---5-5---5-7-7-7---7-7---7-2-2-2---2-2---2-2-2-2---2-2---2-----------|

[Chorus]

e|-------------0-------------------------------------------------------------|
B|-------3---------------1-----0---------------------------------------------|
G|---------------------------------------0-----------------------------------|
D|---------------------------------------------4---------4-----2-------------|
A|-3-3-3---3-3---3-0-0-0---0-0---0-------------------------------------------|
D|---------------------------------2-2-2---2-2---2-0-0-0---0-0---0-----------|


e|-------------0-------------------------------------------------------------|
B|-------3---------------1-----0---------------------------------------------|
G|---------------------------------------0-----------------------------------|
D|---------------------------------------------4---------4-----2-------------|
A|-3-3-3---3-3---3-0-0-0---0-0---0-------------------------------------------|
D|---------------------------------2-2-2---2-2---2-0-0-0---0-0---0-----------|

e|-------------0-------------------------------------------------------------|
B|-------3---------------1-----0---------------------------------------------|
G|---------------------------------------0-----------------------------------|
D|---------------------------------------------4---------4-----2-------------|
A|-3-3-3---3-3---3-0-0-0---0-0---0-------------------------------------------|
D|---------------------------------2-2-2---2-2---2-0-0-0---0-0---0-----------|


e|-------------0-------------------------------------------------------------|
B|-------3---------------1-----0---------------------------------------------|
G|---------------------------------------0-----------------------------------|
D|---------------------------------------------4---------4-----4-------------|
A|-3-3-3---3-3---3-0-0-0---0-0---0-------------------------------------------|
D|---------------------------------2-2-2---2-2---2-0-0-0---0-0---0-----------|

e|---------------------------------------------------------------------------|
B|---------------------------------------------------------------------------|
G|---------------------------------------------------------------------------|
D|-------4----4--------------------------------------------------------------|
A|---------------------------------------------------------------------------|
D|-0-0-0--0-0--0-------------------------------------------------------------|



[Outro]

e|---------------------------------------------------------------------------|
B|---------------------------------------------------------------------------|
G|-----------------------0-----0---------------------------------------------|
D|-------2-----2-------------------------2-----0---------2-----0-------------|
A|---------------------------------------------------------------------------|
D|-5-5-5---5-5---5-7-7-7---7-7---7-2-2-2---2-2---2-2-2-2---2-2---2-----------|


e|---------------------------------------------------------------------------|
B|---------------------------------------------------------------------------|
G|-----------------------0-----0---------------------------------------------|
D|-------2-----2-------------------------2-----0---------2-----0-------------|
A|---------------------------------------------------------------------------|
D|-5-5-5---5-5---5-7-7-7---7-7---7-2-2-2---2-2---2-2-2-2---2-2---2-----------|


e|---------------------------------------------------------------------------|
B|---------------------------------------------------------------------------|
G|-----------------------0-----0---------------------------------------------|
D|-------2-----2-------------------------2-----0---------2-----0-------------|
A|---------------------------------------------------------------------------|
D|-5-5-5---5-5---5-7-7-7---7-7---7-2-2-2---2-2---2-2-2-2---2-2---2-----------|


e|---------------------------------------------------------------------------|
B|---------------------------------------------------------------------------|
G|-----------------------0-----0---------------------------------------------|
D|-------2-----2-------------------------2-----0---------2-----0-------------|
A|---------------------------------------------------------------------------|
D|-5-5-5---5-5---5-7-7-7---7-7---7-2-2-2---2-2---2-2-2-2---2-2---2-----------|

            
            
Suggest correction
Creating personal tab
Creating personal tab
You can edit any tab online and save it as your Personal.

You can edit, replace or remove any tab part or add personal notes – all changes will be seen only by you.

Personal tabs can be accessed anytime from any device, even offline.
Learn more »
Give kudos to tab author, rate the tab!
1 2 3 4 5
comments
print report bad tab
2 comments total.
0 reply
Jaybailey216 31 Sep 11, 2017 09:30 PM

Great tab! My only suggestion is to add the slides he does throughout the verses. Other than great tab spot on!

0 reply
Jaybailey216 31 Sep 11, 2017 09:30 PM

Very accurate really good stuff sammibuddy123!

guest
You may want to rate the tab now too:
select rating
Wanna post a correction for this tab? Suggest correction