Oops, an error
Loading. Please wait.

I See Monsters ukulele

version 1
version 1

Whole song

Interactive

226 views 1 this week
no commentswrite comment
1 2 3 4 5
1 last vote to show rating
add to favorites
×
Save as Personal and add changes to this tab that will be seen only by you. Learn more ›
×
You can save this tab as Personal to edit and correct it or add notes. All changes will be seen only by you. Learn more »
launch autoscroll
font size
0
reset
transpose
0
reset
display chords
guitar tuner
edit
Autoscroll
slow
fast
+/-
esc
set tempo
stop
Author
Difficulty
Strumming
There is no strumming pattern for this song yet. and get +5 IQ
So this is how I play this song on the ukulele. It's slightly modified, but it works well for the uke, 
especially if you do the picking pattern. If you just want to play the chords, I put those under the tabs. 
To figure out where to sing with the chords, listen to the song and get a feel for his rhythm.

VERSE 1

           Baby, I know you cannot hear me now
A|--------0--------------0----------------2---------------2-------|
E|----0-----0---0---0-------0---0----3-------3---3---3-------3---3|
C|--1---1-----1---1---1-------1----2---2-------2---2---2-------2--|
G|----------------------------------------------------------------|
   A                               G 

   'Cause you're fast asleep       But I love you now
A|--------0--------------0----------------2---------------2-------|
E|----1-----1---1---1-------1---1----3-------3---3---3-------3---3|
C|--0---0-----0---0---0-------0----2---2-------2---2---2-------2--|
G|----------------------------------------------------------------|
    F                              G 

       Colors inside your head go spinning around
A|--------0--------------0----------------2---------------2-------|
E|----0-----0---0---0-------0---0----3-------3---3---3-------3---3|
C|--1---1-----1---1---1-------1----2---2-------2---2---2-------2--|
G|----------------------------------------------------------------|
   A                               G

  Like a ferris wheel exploding and falling to the ground
A|--------0--------------0----------------2---------------2-------|
E|----1-----1---1---1-------1---1----3-------3---3---3-------3---3|
C|--0---0-----0---0---0-------0----2---2-------2---2---2-------2--|
G|----------------------------------------------------------------|
    F                              G

   Oh, people are screaming, people are screaming. My baby
A|--------0--------------0----------------2---------------2-------|
E|----0-----0---0---0-------0---0----3-------3---3---3-------3---3|
C|--1---1-----1---1---1-------1----2---2-------2---2---2-------2--|
G|----------------------------------------------------------------|
   A                               G 

...she's dreaming
A|--------0--------------0----------------2---------------2-------|
E|----1-----1---1---1-------1---1----3-------3---3---3-------3---3|
C|--0---0-----0---0---0-------0----2---2-------2---2---2-------2--|
G|----------------------------------------------------------------|
    F                              G

   Oh, people are shouting, people are freaking. I'm staring
A|--------0--------------0----------------2---------------2-------|
E|----0-----0---0---0-------0---0----3-------3---3---3-------3---3|
C|--1---1-----1---1---1-------1----2---2-------2---2---2-------2--|
G|----------------------------------------------------------------|
    A                              G

...at the ceiling, waiting for the feeling.
A|--------0--------------0----------------2---------------2-------|
E|----1-----1---1---1-------1---1----3-------3---3---3-------3---3|
C|--0---0-----0---0---0-------0----2---2-------2---2---2-------2--|
G|----------------------------------------------------------------|
    F                              G

   But ooh, ooh..             ...ooh               when she 
A|--------0--------------0----------------2---------------2-------|
E|----1-----1---1---1-------1---1----3-------3---3---3-------3---3|
C|--2---2-----2---2---2-------2----2---2-------2---2---2-------2--|
G|----------------------------------------------------------------|
   Dm                              G


...calls,      I know she's the one
A|--------3--------------3----------------0---------------0-------|
E|----0-----0---0---0-------0---0----1-------1---1---1-------1---1|
C|--0---0-----0---0---0-------0----0---0-------0---0---0-------0--|
G|----------------------------------------------------------------|
    C                              F


     Makes me want her            harder
A|--------0--------------0----------------2---------------2-------|
E|----0-----0---0---0-------0---0----4-------4---4---4-------4---4|
C|--0---0-----0---0---0-------0----4---4-------4---4---4-------4--|
G|----------------------------------------------------------------|
   Am                              E

  Makes me want to be a little stronger
A|--------0--------------2----------------0---------------0-------|
E|----0-----0---0---3-------3---3----1-------1---1---1-------1---1|
C|--0---0-----0---2---2-------2----0---0-------0---0---0-------0--|
G|----------------------------------------------------------------|
   Am             G                F

                     Still I see monsters
A|--------0--------------0----------------2---------------2-------|
E|----1-----1---1---1-------1---1----3-------3---3---3-------3---3|
C|--0---0-----0---0---0-------0----2---2-------2---2---2-------2--|
G|----------------------------------------------------------------|
    F                              G 

                    Still I see monsters
A|--------2---------------2----------------2---------------2----------------2---------------2-------|
E|----3-------3---3---3-------3---3---4-------4---4---4-------4---4----4-------4---4---4-------4---4|
C|--2---2-------2---2---2-------2---4---4-------4---4---4-------4---4---4--------4---4---4-------4--|
G|--------------------------------------------------------------------------------------------------|
    G                               E



INTERLUDE (repeat once)
A|--------0--------------0----------------2---------------2-------|
E|----0-----0---0---0-------0---0----3-------3---3---3-------3---3|
C|--1---1-----1---1---1-------1----2---2-------2---2---2-------2--|
G|----------------------------------------------------------------|
    A                              G

A|--------0--------------0----------------2---------------2-------|
E|----1-----1---1---1-------1---1----3-------3---3---3-------3---3|
C|--0---0-----0---0---0-------0----2---2-------2---2---2-------2--|
G|----------------------------------------------------------------|
    F                              G


VERSE 2

           Baby, I know you cannot hear me now
A|--------0--------------0----------------2---------------2-------|
E|----0-----0---0---0-------0---0----3-------3---3---3-------3---3|
C|--1---1-----1---1---1-------1----2---2-------2---2---2-------2--|
G|----------------------------------------------------------------|
    A                              G 

   'Cause you're far away  At the speed of sound
A|--------0--------------0----------------2---------------2-------|
E|----1-----1---1---1-------1---1----3-------3---3---3-------3---3|
C|--0---0-----0---0---0-------0----2---2-------2---2---2-------2--|
G|----------------------------------------------------------------|
    F                              G

       Colors inside your head go spinning around
A|--------0--------------0----------------2---------------2-------|
E|----0-----0---0---0-------0---0----3-------3---3---3-------3---3|
C|--1---1-----1---1---1-------1----2---2-------2---2---2-------2--|
G|----------------------------------------------------------------|
    A                              G

  Like a ferris wheel exploding and falling to the ground
A|--------0--------------0----------------2---------------2-------|
E|----1-----1---1---1-------1---1----3-------3---3---3-------3---3|
C|--0---0-----0---0---0-------0----2---2-------2---2---2-------2--|
G|----------------------------------------------------------------|
    F                              G


   Oh, people are screaming, people are screaming. My baby
A|--------0--------------0----------------2---------------2-------|
E|----0-----0---0---0-------0---0----3-------3---3---3-------3---3|
C|--1---1-----1---1---1-------1----2---2-------2---2---2-------2--|
G|----------------------------------------------------------------|
    A                              G

...she's dreaming
A|--------0--------------0----------------2---------------2-------|
E|----1-----1---1---1-------1---1----3-------3---3---3-------3---3|
C|--0---0-----0---0---0-------0----2---2-------2---2---2-------2--|
G|----------------------------------------------------------------|
    F                              G

   Oh, people are shouting, people are freaking. I'm staring
A|--------0--------------0----------------2---------------2-------|
E|----0-----0---0---0-------0---0----3-------3---3---3-------3---3|
C|--1---1-----1---1---1-------1----2---2-------2---2---2-------2--|
G|----------------------------------------------------------------|
    A                              G

...at the ceiling, waiting for the feeling.
A|--------0--------------0----------------2---------------2-------|
E|----1-----1---1---1-------1---1----3-------3---3---3-------3---3|
C|--0---0-----0---0---0-------0----2---2-------2---2---2-------2--|
G|----------------------------------------------------------------|
    F                              G

   But ooh, ooh..             ...ooh               when she 
A|--------0--------------0----------------2---------------2-------|
E|----1-----1---1---1-------1---1----3-------3---3---3-------3---3|
C|--2---2-----2---2---2-------2----2---2-------2---2---2-------2--|
G|----------------------------------------------------------------|
   Dm                              G


...calls,      I know she's the one
A|--------3--------------3----------------0---------------0-------|
E|----0-----0---0---0-------0---0----1-------1---1---1-------1---1|
C|--0---0-----0---0---0-------0----0---0-------0---0---0-------0--|
G|----------------------------------------------------------------|
    C                              F


     Makes me want her            harder
A|--------0--------------0----------------2---------------2-------|
E|----0-----0---0---0-------0---0----4-------4---4---4-------4---4|
C|--0---0-----0---0---0-------0----4---4-------4---4---4-------4--|
G|----------------------------------------------------------------|
   Am                              E

  Makes me want to be a little stronger
A|--------0--------------2----------------0---------------0-------|
E|----0-----0---0---3-------3---3----1-------1---1---1-------1---1|
C|--0---0-----0---2---2-------2----0---0-------0---0---0-------0--|
G|----------------------------------------------------------------|
   Am             G                F

                     Still I see monsters
A|--------0--------------0----------------2---------------2-------|
E|----1-----1---1---1-------1---1----3-------3---3---3-------3---3|
C|--0---0-----0---0---0-------0----2---2-------2---2---2-------2--|
G|----------------------------------------------------------------|
    F                              G

                    Still I see monsters
A|--------2---------------2----------------2---------------2----------------2---------------2-------|
E|----3-------3---3---3-------3---3---4-------4---4---4-------4---4----4-------4---4---4-------4---4|
C|--2---2-------2---2---2-------2---4---4-------4---4---4-------4---4---4--------4---4---4-------4--|
G|--------------------------------------------------------------------------------------------------|
    G                               E

Finish the song on an A.


Hope you enjoyed this tab! :)

            
            
Suggest correction
Creating personal tab
Creating personal tab
You can edit any tab online and save it as your Personal.

You can edit, replace or remove any tab part or add personal notes – all changes will be seen only by you.

Personal tabs can be accessed anytime from any device, even offline.
Learn more »
Give kudos to tab author, rate the tab!
1 2 3 4 5
comments
print report bad tab
guest
You may want to rate the tab now too:
select rating
Wanna post a correction for this tab? Suggest correction