Oops, an error
Loading. Please wait.

Our Story tab

version 1
version 1

Whole song

329 views 1 this week
no commentswrite comment
1 2 3 4 5
3 more votes to show rating
add to favorites
×
Save as Personal and add changes to this tab that will be seen only by you. Learn more ›
×
You can save this tab as Personal to edit and correct it or add notes. All changes will be seen only by you. Learn more »
launch autoscroll
font size
0
reset
how to read this tab
guitar tuner
edit
Autoscroll
slow
fast
+/-
esc
set tempo
stop
Artist: Ryan Cabrera
Song: Our Story

Hey, I also did the "Our Story" intro.  But I decided to tab it again cause
I changed it a little bit.  If you have any Q's IM me at Guitars000

Capo 3

Intro:

e|------------------------------------------------------------------------|
b|-----------------------------5s8-10-7-8-5-7-4-5-------------------------|
G|--------------------2-4-5-4-------------------------------4-2-----------|
D|--1s2-2h4-5-4-4h5-4------------------------------1s2-2h4------4h2-4-2---|
A|------------------------------------------------------------------------|
E|------------------------------------------------------------------------|

Verse:
Em       Esus      
This Time I'll
Em       Esus
Think of brighter days 
Em       Esus
Where I'm falling deep
Em       Esus
Deep inside our story
Em   Esus
I'm counting on
Em        Esus
Something I can feel
Em     Esus
I wont fall asleep
Em
Cause Even if I'm hurting
C                          G
I'm waiting on the one for me

Bridge:
C              
Its a good day 
G
for me
C
Its a good day

To take a chance
    G
and let you in to see

Chorus: 
G            D
Exactly who I am
    Em          C
And if you understand me
G                   D
and if you can roll with it
C              Em
I will be your man

[verse]
[chorus]
[chorus]

Solo:

e|---------------------------------------------------------------|
b|---------------------------------------------------------------|
G|----------------------------------------------9----------------|
D|------5-----5-5-----5-----------5-----7-5-7s9---9-9s7-5--------|
A|--5h7---5h7-----5h7---5-6-7-5h7---5h7-------------------5-6-7--|
E|---------------------------------------------------------------|

[bridge]
[chorus]
[chorus]

The solo at the end is basically just improvising....just work with you scales on that one.




            
            
Suggest correction
Creating personal tab
Creating personal tab
You can edit any tab online and save it as your Personal.

You can edit, replace or remove any tab part or add personal notes – all changes will be seen only by you.

Personal tabs can be accessed anytime from any device, even offline.
Learn more »
Give kudos to tab author, rate the tab!
1 2 3 4 5
comments
print report bad tab
guest
You may want to rate the tab now too:
select rating
Wanna post a correction for this tab? Suggest correction