Oops, an error
Loading. Please wait.

Jigsaw tab

version 1
version 1

Whole song

30,978 views 3 this week
2 commentsread comments
1 2 3 4 5
x 8
add to favorites
×
Save as Personal and add changes to this tab that will be seen only by you. Learn more ›
×
You can save this tab as Personal to edit and correct it or add notes. All changes will be seen only by you. Learn more »
launch autoscroll
font size
0
reset
how to read this tab
guitar tuner
edit
Autoscroll
slow
fast
+/-
esc
set tempo
stop
Author
Artist: Ryan Sheridan
Song: Jigsaw
Tuning: EADF#Be
(www.ryansheridanmusic.com)
(Chords Used for Verse below. Chord marked* used when he says "I got lost to find my way")
Open e string is optional
                                    *
e |------0---------0--------0--------0----------------------------------------|
B |------0---------0--------0--------3----------------------------------------|
F#|------5---------3--------1--------1----------------------------------------|
D |------6---------4--------2--------2----------------------------------------|
A |------7---------5--------3--------0----------------------------------------|
E |------7---------5--------3--------x----------------------------------------|

 (Little jig he does between verses...)

    Strummed then...
e |------0-----------------------------------------------------------x--------|
B |------0-----------------------------------------------------------x--------|
F#|------5-----------------------------------------------------------1--------|
D |------6---------------------------5-------------------------------2--------|
A |------7---------------------6----------------0-----5------7-------3--------|
E |------7----------------7---------------7--------------------------3--------|

(These Chords used when he says "Smooth walkin..." etc.. (Bridge))

Last 2 chords played without the first chord towards end of bridge, use pinky for 10th!
e |------x-----------x---------x----------------------------------------------|
B |------0-----------x---------x----------------------------------------------|
F#|------5-----------0---------0----------------------------------------------|
D |------6-----------9---------9----------------------------------------------|
A |------7-----------7---------7----------------------------------------------|
E |------x-----------8--------10----------------------------------------------|

(When he ooohhhs and aahhhs... Play)

e |-------0----------0---------0--------0-------------------------------------|
B |-------0----------0---------0--------0-------------------------------------|
F#|-------5----------7---------8-------10-------------------------------------|
D |-------6----------8---------9-------11-------------------------------------|
A |-------7----------9--------10-------12-------------------------------------|
E |-------7----------9--------10-------12-------------------------------------|

And then back to crazy strumming with the little jig finishing with the chord*

************************************

| x  Dead note

************************************

            
            
Suggest correction
Creating personal tab
Creating personal tab
You can edit any tab online and save it as your Personal.

You can edit, replace or remove any tab part or add personal notes – all changes will be seen only by you.

Personal tabs can be accessed anytime from any device, even offline.
Learn more »
comments
print report bad tab
2 comments total.
0 reply
alvaro-guitar 92 Oct 21, 2010 11:44 AM

Good attempt with nothing to go from. The only thing i could say to improve is that i think it sounds better without using your 2nd finger for the first set of chords. I could be completly wrong tho just sounds better to me

0 reply
Dunnerxyz 10 Jan 31, 2011 11:57 PM

Good tab - Thanks

Slight correction here and there though

Verse (using thumb to hammer/mute on E 5th fret)

e|------0---------0--------0--------0----------------------------------------|
B|------0---------0--------0--------3----------------------------------------|
G|------5---------0--------0--------1----------------------------------------|
D|------0---------4--------2--------2----------------------------------------|
A|------7---------5--------3--------0----------------------------------------|
E|------0---------0--------0--------x----------------------------------------|

"Smooth walkin..." etc.. (Bridge)

e|------x-----------x---------x----------------------------------------------|
B|------0-----------x---------x----------------------------------------------|
G|------10----------0---------0----------------------------------------------|
D|------9-----------9---------9----------------------------------------------|
A|------7-----------7---------7----------------------------------------------|
E|------x-----------8--------10----------------------------------------------|

guest
You may want to rate the tab now too:
select rating
Wanna post a correction for this tab? Suggest correction