Oops, an error
Loading. Please wait.

Upside Down tab

1,161 views 3 this week
no commentswrite comment
1 2 3 4 5
2 more votes to show rating
add to favorites
×
Save as Personal and add changes to this tab that will be seen only by you. Learn more ›
×
You can save this tab as Personal to edit and correct it or add notes. All changes will be seen only by you. Learn more »
launch autoscroll
font size
0
reset
how to read this tab
guitar tuner
edit
Autoscroll
slow
fast
+/-
esc
set tempo
stop
Acoustic Version

My first attempt at transcribing a song by ear.
The rhythm of the verse may not be 100% correct but you can figure it out from listening.

I think it's pretty close overall but suggestions and fixes are of course welcome.

Capo on 1st

Intro x2                                    D    A7
e ------------------------------------------2----0------------|
B ----0---0---0------------------0---0------3----2------------|
G ------2---0------0---------------2--------2----0------------|
D ---------------5---5p2--------------------0----2------------|
A ------------------------------------------0----0------------|
E --0--------------------------0------------------------------|


Verse - muted all the way through
   Em    Em      Em     Em
e --------------------------------------------------|
B --------------------------------------------------|
G --------------------------------------------------|
D --2----2-2-----2-2----2---------------------------|
A --2----2-2-----2-2----2---------------------------|
E --0----0-0-----0-0----0---------------------------|
      I left my past behind

   Em    Em      Em     D      A7
e ----------------------2------0--------------------|
B ----------------------3------2--------------------|
G ----------------------2------0--------------------|
D --2----2-2-----2-2----0------2--------------------|
A --2----2-2-----2-2----0------0--------------------|
E --0----0-0-----0-0--------------------------------|
      To see what I thought was good for me

Second half of verse
   Em    Em      Em     Em
e --------------------------------------------------|
B --------------------------------------------------|
G --------------------------------------------------|
D --2----2-2-----2-2----2---------------------------|
A --2----2-2-----2-2----2---------------------------|
E --0----0-0-----0-0----0-------------2^3-----------|
    Fate caught at the end of a line, I'm a

   Em    Em      Em     D      A7
e ----------------------2------0--------------------|
B ----------------------3------2--------------------|
G ----------------------2------0--------------------|
D --2----2-2-----2-2----0------2--------------------|
A --2----2-2-----2-2----0------0--------------------|
E --0----0-0-----0-0--------------------------------|
      Hard sell on my benefit time, like a


Chorus
There goes my head...
e --------------------------------------------------------|
B --------------------------------------------------------|
G --------------------------------------------------------|
D ---9--5~--5-5-5---7-7-7-7-7-7-7--4-4-4-4-4--------------|
A ---9--5~--5-5-5---7-7-7-7-7-7-7--4-4-4-4-4---5-5--7-7---|
E ---7--3~--3-3-3---5-5-5-5-5-5-5--2-2-2-2-2---3-3--5-5---|
(repeat as necessary)


Bridge (muted)
B5            D5  A5
I can find my way home
B5            D5  A5
I can find my way out


Outro x2
   Em    Em      Em     Em
e -------------------------------------------|
B -----------17~-----------------------------|
G -------------------------------------------|
D --2----2-2-----2-2----2--------------------|
A --2----2-2-----2-2----2--------------------|
E --0----0-0-----0-0----0------2^3-----------|

   Em    Em      D      A7
e ---------------2------0--------------------|
B ---------------3------2--------------------|
G ---------------2------0--------------------|
D --2----2-2-----0------2--------------------|
A --2----2-2-----0------0--------------------|
E --0----0-0---------------------------------|

            
            
Suggest correction
Creating personal tab
Creating personal tab
You can edit any tab online and save it as your Personal.

You can edit, replace or remove any tab part or add personal notes – all changes will be seen only by you.

Personal tabs can be accessed anytime from any device, even offline.
Learn more »
Give kudos to tab author, rate the tab!
1 2 3 4 5
comments
print report bad tab
guest
You may want to rate the tab now too:
select rating
Wanna post a correction for this tab? Suggest correction