Oops, an error
Loading. Please wait.

Live Happy With Anorexia intro tab

687 views 1 this week
2 commentsread comments
1 2 3 4 5
3 more votes to show rating
add to favorites
×
Save as Personal and add changes to this tab that will be seen only by you. Learn more ›
×
You can save this tab as Personal to edit and correct it or add notes. All changes will be seen only by you. Learn more »
launch autoscroll
font size
0
reset
how to read this tab
guitar tuner
edit
Autoscroll
slow
fast
+/-
esc
set tempo
stop
-----------------------------------------------------------------------------
                         LIVE HAPPY WITH ANOREXIA - Ryan Star
-----------------------------------------------------------------------------
Tabbed by:wildBILL010
Email: bbill010@gmail.com
Tuning:DADGBe

This is my own way of playing this song but it sounds almost exactly like the original 
of the Stage album.
Suggestions or corrections please let me know.

            *
|----------------------------------------------|
|----------------------------------------------|
|-------------------------------2---------2----|
|-0---------2---------3-----------0------------|
|---0---0-----0---0-----0---0-------0---0------|
|-0---0---0-0---0---0-0---0---0-0-----0--------|

|----------------------------------------------|
|----------------------------------------------|
|----------------------------------------------|
|-5---------3---------2---------5---------5----|
|---3---3-----3---3-----3---3-----3---3--------|
|-3---3---3-3---3---3-3---3---3-3---3---3-3----|

|----------------------------------------------|
|----------------------------------------------|
|----------------------------------------------|
|-3---------2---------0-----------------0h2--*-|
|---0---0-----0---0-----0---0-4---4h5----------|
|-0---0---------0-----0---0---0-0-0---0-0------|

            
            
Suggest correction
Creating personal tab
Creating personal tab
You can edit any tab online and save it as your Personal.

You can edit, replace or remove any tab part or add personal notes – all changes will be seen only by you.

Personal tabs can be accessed anytime from any device, even offline.
Learn more »
Give kudos to tab author, rate the tab!
1 2 3 4 5
comments
print report bad tab
2 comments total.
0 reply
wildBILL010 195 Sep 09, 2010 05:17 PM

Here is what the 3rd bar is supposed to be:

|----------------------------------------------|
|----------------------------------------------|
|----------------------------------------------|
|-3---------2---------0-----------------0h2--*-|
|---0---0-----0---0-----0---0-4---4h5----------|
|-0---0---------0-----0---0---0-0-0---0-0------|

(*) at the end means to start over from where it is at the beginning. If you play it you will understand more clearly.

0 reply
wildBILL010 195 Sep 09, 2010 06:21 PM

I posted the correction for the 3rd measure in the comments

guest
You may want to rate the tab now too:
select rating
Wanna post a correction for this tab? Suggest correction