Oops, an error
Loading. Please wait.

Vampires tab

by s
181 views 3 this week
no commentswrite comment
1 2 3 4 5
3 more votes to show rating
add to favorites
×
Save as Personal and add changes to this tab that will be seen only by you. Learn more ›
×
You can save this tab as Personal to edit and correct it or add notes. All changes will be seen only by you. Learn more »
launch autoscroll
font size
0
reset
how to read this tab
guitar tuner
edit
Autoscroll
slow
fast
+/-
esc
set tempo
stop
[Verses]

(Guitar 1 - strum these accordingly)

       Cadd9                  Am9
e|------3----------------------0---------------------------------------------|
B|------3----------------------0---------------------------------------------|
G|------5----------------------5---------------------------------------------|
D|------5----------------------5---------------------------------------------|
A|----2/3----------------------0---------------------------------------------|
E|---------------------------3h5---------------------------------------------|

(Guitar 2)

e|---------3--3----------0---0-----------------------------------------------|
B|-------3------3------3-------(3)-------------------------------------------|
G|-----5----5--------5-----5-------------------------------------------------|
D|---------------------------------------------------------------------------|
A|---------------------------------------------------------------------------|
E|---------------------------------------------------------------------------|

(Bass)

G|---------------------------------------------------------------------------|
D|---------------------------------------------------------------------------|
A|---------------------------------------------------------------------------|
E|----5--7--8~--3~--5~-------------------------------------------------------|


[Chorus]

(Guitar 1)

e|---------------------------------------------------------------------------|
B|---------------------------------------------------------------------------|
G|---------------------------------------------------------------------------|
D|----h17-----h17-----h17-----h17-----h19-----h19-----h19-----h19------------|
A|-h15-----h15-----h15-----h15-----h17-----h17-----h17-----h17-------17--15--|
E|---------------------------------------------------------------------------|

(Guitar 2)

e|---------------------------------------------------------------------------|
B|----h15-----h15-----h15-----h15-----h17-----h17-----h17-----h17------------|
G|-h17-----h17-----h17-----h17-----h17-----h17-----h17-----h17---------------|
D|---------------------------------------------------------------------------|
A|---------------------------------------------------------------------------|
E|---------------------------------------------------------------------------|

(Bass)
                          
G|---------------------------------------------------------------------------|
D|--------------------------------------5------------------------------------|
A|---0---0---0---0----0----0----0----0---------------------------------------|
E|-8---8---8---8---10---10---10---10-----------------------------------------|

After doing this go back to Verses and then do this over again.


[Bridge]

(Guitar 1)

e|---------------------------------------------------------------------------|
B|---------------------------------------------------------------------------|
G|---5-5-/-12---3-5-/-12---5-5--/-12---7-\-5---------------------------------|
D|---x-x-/--x---x-x-/--x---x-x--/--x---x-\-x-------Repeat as necessary-------|
A|---3-3-/-10---5-5-/-10---3-3--/-10---5-\-3---------------------------------|
E|---------------------------------------------------------------------------|

(Guitar 2)

e|---------------------------------------------------------------------------|
B|----15--15--15--15--10--10--10--10--17--17--17--17-------------------------|
G|--17--17--17--17--12--12--12--12--19--19--19--19---------------------------|
D|---------------------------------------------------------------------------|
A|---------------------------------------------------------------------------|
E|---------------------------------------------------------------------------|

(Play this as Guitar 1 stops)
e|---------------------------------------------------------------------------|
B|---------15--15----------10--10----------17--17----------------------------|
G|--17--17---------12--12----------19--19----------17------------------------|
D|---------------------------------------------------------------------------|
A|---------------------------------------------------------------------------|
E|---------------------------------------------------------------------------|

After this Guitar 1 will go back to its progression of Cadd9 and Am9 again. 
Guitar 2 will play the lead from the Bridge till the end though instead of the original Chorus lead.

e|---------------------------------------------------------------------------|
B|----15--15--15--15--10--10--10--10--17--17--17--17-------------------------|
G|--17--17--17--17--12--12--12--12--19--19--19--19---------------------------|
D|---------------------------------------------------------------------------|
A|---------------------------------------------------------------------------|
E|---------------------------------------------------------------------------|


************************************
| x   Dead note
|(n)  Ghost note
| h   Hammer-on
| /   Slide up
| \   Slide down
************************************

            
            
Suggest correction
Creating personal tab
Creating personal tab
You can edit any tab online and save it as your Personal.

You can edit, replace or remove any tab part or add personal notes – all changes will be seen only by you.

Personal tabs can be accessed anytime from any device, even offline.
Learn more »
Give kudos to tab author, rate the tab!
1 2 3 4 5
comments
print report bad tab
guest
You may want to rate the tab now too:
select rating
Wanna post a correction for this tab? Suggest correction