Oops, an error
Loading. Please wait.

Rise Of Evil tab

version 1
version 1

Whole song

  • This is a transcription of the full song, includin... Show more

Interactive

by Sabaton
817 views 9 this week
1 commentread comment
1 2 3 4 5
3 more votes to show rating
add to favorites
×
Save as Personal and add changes to this tab that will be seen only by you. Learn more ›
×
You can save this tab as Personal to edit and correct it or add notes. All changes will be seen only by you. Learn more »
launch autoscroll
font size
0
reset
how to read this tab
guitar tuner
edit
Autoscroll
slow
fast
+/-
esc
set tempo
stop
Author
Difficulty
About this tab version
This is a transcription of the full song, including the guitar harmonies and the guitar solo. Was this info helpful? Yes No
"Rise Of Evil"
by Sabaton
from their 2006 album "Attero Dominatus", released under Black Lodge Records

Original music: https://www.youtube.com/watch?v=jmgCoUdY2WU

Tabbed by Jarrod G

Tempo: 82 BPM
Time Signatures: 4/4, 5/4, 2/4, 3/4
Key: E Minor

Guitar 1 (Rhythm): EADGBE (E Standard)
Guitar 2 (Rhythm): EADGBE (E Standard)
Guitar 3 (Lead Solo): EADGBE (E Standard)

[Drum Intro]
(0:00)
  4/4
  Drums start halfway through this bar
e|------------------------------------|
B|------------------------------------|
G|------------------------------------|
D|------------------------------------|
A|------------------------------------|
E|------------------------------------|

[Intro]
(0:02)
  No guitar for first 4 bars of this part
  Guitar 1
e|--------------------|--------------------|--------------------|--------------------|
B|--------------------|--------------------|--------------------|--------------------|
G|--------------------|--------------------|--------------------|--------------------|
D|--------------------|--------------------|--------------------|--------------12\---|
A|--------------------|--------------------|--------------------|--------------12\---|
E|--------------------|--------------------|--------------------|--------------12\---|
 |Guitar 2
e|--------------------|--------------------|--------------------|--------------------|
B|--------------------|--------------------|--------------------|--------------------|
G|--------------------|--------------------|--------------------|--------------------|
D|--------------------|--------------------|--------------------|--------------12\---|
A|--------------------|--------------------|--------------------|--------------12\---|
E|--------------------|--------------------|--------------------|--------------12\---|

  Guitar 1
   Em
e|--------------------|---------------------|-------------------|--------------------|
B|--------------------|---------------------|-------------------|--------------------|
G|-9===========12-11==|-12=======7====11-7==|-9===========9--7==|-5========4====7====|
D|--------------------|---------------------|-------------------|--------------------|
A|-7===========10-9===|-10=======5====9--5==|-7===========7--5==|-3========2====5====|
E|--------------------|---------------------|-------------------|--------------------|
 |Guitar 2
e|--------------------|---------------------|-------------------|--------------------|
B|--------------------|---------------------|-------------------|--------------------|
G|-9===========12-11==|-12=======7====11-7==|-9===========9--7==|-5========4====7====|
D|--------------------|---------------------|-------------------|--------------------|
A|-7===========10-9===|-10=======5====9--5==|-7===========7--5==|-3========2====5====|
E|--------------------|---------------------|-------------------|--------------------|

  Guitar 1
   Em                                                             C        G    D/F#
e|--------------------|---------------------|-------------------|--------------------|
B|--------------------|---------------------|-------------------|--------------------|
G|-9===========12-11==|-12=======7====11-7==|-9===========9--7==|-5========12===11===|
D|--------------------|---------------------|-------------------|--------------------|
A|-7===========10-9===|-10=======5====9--5==|-7===========7--5==|-3========10===9====|
E|--------------------|---------------------|-------------------|--------------------|
 |Guitar 2
e|--------------------|---------------------|-------------------|--------------------|
B|--------------------|---------------------|-------------------|--------------------|
G|-9===========12-11==|-12======14===12-14==|-16=========16-14==|-12=======16===14===|
D|--------------------|---------------------|-------------------|--------------------|
A|-7===========10-9===|-10======12===10-12==|-14=========14-12==|-10=======14===12===|
E|--------------------|---------------------|-------------------|--------------------|

[Main Riff I]
(0:37)
  Guitar 1
   Em                                                                                     C        G    D/F#
e|----------------------------|----------------------------|----------------------------|--------------------|
B|----------------------------|----------------------------|----------------------------|--------------------|
G|----------------------------|----------------------------|----------------------------|--------------------|
D|----------------------------|--------------------------7=|----------------------------|----------5====4====|
A|-7=----10=----9=----10-9----|-7=-----10=----9=----9-10---|-7=----10=----9=----10-9----|-10=======5====5====|
E|---0-0----0-0---0-0------10=|---0-0-----0-0---0-0--------|---0-0----0-0---0-0------10=|-8========3====2====|
 |   PM-    PM-   PM-             PM-     PM-   PM-            PM-    PM-   PM-
 |Guitar 2
e|----------------------------|----------------------------|----------------------------|--------------------|
B|----------------------------|----------------------------|----------------------------|--------------------|
G|----------------------------|----------------------------|----------------------------|--------------------|
D|----------------------------|--------------------------7=|----------------------------|----------5====4====|
A|-7=----10=----9=----10-9----|-7=-----10=----9=----9-10---|-7=----10=----9=----10-9----|-10=======5====5====|
E|---0-0----0-0---0-0------10=|---0-0-----0-0---0-0--------|---0-0----0-0---0-0------10=|-8========3====2====|
     PM-    PM-   PM-             PM-     PM-   PM-            PM-    PM-   PM-

  Guitar 1
   Em                                                                                     C        G    D/F#
e|----------------------------|----------------------------|----------------------------|--------------------|
B|----------------------------|----------------------------|----------------------------|--------------------|
G|----------------------------|----------------------------|----------------------------|--------------------|
D|----------------------------|--------------------------7=|----------------------------|----------5====4====|
A|-7=----10=----9=----10-9----|-7=-----10=----9=----9-10---|-7=----10=----9=----10-9----|-10=======5====5====|
E|---0-0----0-0---0-0------10=|---0-0-----0-0---0-0--------|---0-0----0-0---0-0------10=|-8========3====2====|
 |   PM-    PM-   PM-             PM-     PM-   PM-            PM-    PM-   PM-
 |Guitar 2
e|----------------------------|----------------------------|----------------------------|--------------------|
B|----------------------------|----------------------------|----------------------------|--------------------|
G|----------------------------|----------------------------|----------------------------|--------------------|
D|--------9=----7=----9--7----|--------9=----7=----7-9--10=|--------9=----7=----9--7----|----------9====7====|
A|-10=---------------------9==|-10=------------------------|-10=---------------------9==|-10=======----------|
E|----0-0---0-0---0-0---------|----0-0---0-0---0-0---------|----0-0---0-0---0-0---------|--------------------|
      PM-   PM-   PM-              PM-   PM-   PM-              PM-   PM-   PM-

[Main Riff II]
(1:00)
  Guitar 1
   Em                                                                                   Vib. in time to music
e|---------------------------------|-----------------------|---------------------------------|---------------|
B|---------------------------------|-----------------------|---------------------------------|---------------|
G|-----16---17=----14---16=----12--|-14=-----16---12\11-9==|-----16---17=----14---19=----17--|-16~~~~~~~~~---|
D|---------------------------------|-----------------------|---------------------------------|------------12\|
A|-----14---15=----12---14=----10--|-12=-----14---10\9--7==|-----14---15=----12---17=----15--|-14~~~~~~~~~12\|
E|-0-0----0----0-0----0----0-0----0|-----0-0----0----------|-0-0----0----0-0----0----0-0----0|------------12\|
 | PM-    PM   PM-    PM   PM-    PM     PM-    PM           PM-    PM   PM-    PM   PM-    PM
 |Guitar 2
e|---------------------------------|-----------------------|---------------------------------|---------------|
B|---------------------------------|-----------------------|---------------------------------|---------------|
G|-----16---17=----14---16=----12--|-14=-----16---12\11-9==|-----16---17=----14---19=----17--|-16~~~~~~~~~---|
D|---------------------------------|-----------------------|---------------------------------|------------12\|
A|-----14---15=----12---14=----10--|-12=-----14---10\9--7==|-----14---15=----12---17=----15--|-14~~~~~~~~~12\|
E|-0-0----0----0-0----0----0-0----0|-----0-0----0----------|-0-0----0----0-0----0----0-0----0|------------12\|
   PM-    PM   PM-    PM   PM-    PM     PM-    PM           PM-    PM   PM-    PM   PM-    PM

  Guitar 1
   Em                                                                                   Vib. in time to music
e|---------------------------------|-----------------------|---------------------------------|---------------|
B|---------------------------------|-----------------------|---------------------------------|---------------|
G|-----16---17=----14---16=----12--|-14=-----16---12\11-9==|-----16---17=----14---19=----17--|-16~~~~~~~~~---|
D|---------------------------------|-----------------------|---------------------------------|------------12\|
A|-----14---15=----12---14=----10--|-12=-----14---10\9--7==|-----14---15=----12---17=----15--|-14~~~~~~~~~12\|
E|-0-0----0----0-0----0----0-0----0|-----0-0----0----------|-0-0----0----0-0----0----0-0----0|------------12\|
 | PM-    PM   PM-    PM   PM-    PM     PM-    PM           PM-    PM   PM-    PM   PM-    PM
 |Guitar 2
e|---------------------------------|-----------------------|---------------------------------|---------------|
B|---------------------------------|-----------------------|---------------------------------|---------------|
G|-----16---17=----14---16=----12--|-14=-----16---12\11-9==|-----16---17=----14---19=----17--|-16~~~~~~~~~---|
D|---------------------------------|-----------------------|---------------------------------|------------12\|
A|-----14---15=----12---14=----10--|-12=-----14---10\9--7==|-----14---15=----12---17=----15--|-14~~~~~~~~~12\|
E|-0-0----0----0-0----0----0-0----0|-----0-0----0----------|-0-0----0----0-0----0----0-0----0|------------12\|
   PM-    PM   PM-    PM   PM-    PM     PM-    PM           PM-    PM   PM-    PM   PM-    PM

[Verse 1]
(1:23)
  Guitar 1
   Em
e|--------------------|---------------------|
B|--------------------|---------------------|
G|--------------------|---------------------|
D|-2==================|=====================|
A|-2==================|=====================|
E|-0==================|=====================|
 |Guitar 2
e|--------------------|---------------------|
B|--------------------|---------------------|
G|--------------------|---------------------|
D|-2==================|=====================|
A|-2==================|=====================|
E|-0==================|=====================|

  Guitar 1
                                                         C              D            Em
e|--------------------|--------------------------------|---------------------------|--------------------|
B|--------------------|--------------------------------|---------------------------|--------------------|
G|--------------------|--------------------------------|-5==============7==========|-9==================|
D|--------------------|--------------------------12\---|-5==============7==========|-9==================|
A|--------------------|--------------------------12\---|-3==============5==========|-7==================|
E|--------------------|--------------------------12\---|---------------------------|--------------------|
 |Guitar 2
e|--------------------|--------------------------------|---------------------------|--------------------|
B|--------------------|--------------------------------|---------------------------|--------------------|
G|--------------------|--------------------------------|-5==============7==========|-9==================|
D|--------------------|--------------------------12\---|-5==============7==========|-9==================|
A|--------------------|--------------------------12\---|-3==============5==========|-7==================|
E|--------------------|--------------------------12\---|---------------------------|--------------------|
  A nation in despair, Weakened by war, defeated             Lost their pride in Versailles

  Guitar 1
                                                        G              D/F#          Em
e|-------------------------|--------------------------|----------------------------|--------------------|
B|-------------------------|--------------------------|----------------------------|--------------------|
G|-------------------------|--------------------------|----------------------------|--------------------|
D|-------------------------|--------------------12\---|-5==============4===========|-2==================|
A|-------------------------|--------------------12\---|-5==============5===========|-2==================|
E|-------------------------|--------------------12\---|-3==============2===========|-0==================|
 |Guitar 2
e|-------------------------|--------------------------|----------------------------|--------------------|
B|-------------------------|--------------------------|----------------------------|--------------------|
G|-------------------------|--------------------------|----------------------------|--------------------|
D|-------------------------|--------------------12\---|-5==============4===========|-2==================|
A|-------------------------|--------------------12\---|-5==============5===========|-2==================|
E|-------------------------|--------------------12\---|-3==============2===========|-0==================|
  A former prisoner, with a vision, or delusion                Rise to power in the Reich

[Pre-Chorus 1]
(1:53)
  Guitar 1
  5/4
   Bm                                                A
e|---------------------------------|---------------------------------|
B|---------------------------------|---------------------------------|
G|---------------------------------|---------------------------------|
D|-4=----4=----4/5\4=----4=----2h5\|-4=----4=----4/5\2=----2=----4/5\|
A|-2=----2=----2/3\2=----2=----0h3\|-2=----2=----2/3\0=----0=----2/3\|
E|---0-0---0-0-------0-0---0-0-----|---0-0---0-0-------0-0---0-0-----|
 |   PM-   PM-       PM-   PM-         PM-   PM-       PM-   PM-
 |Guitar 2
e|---------------------------------|---------------------------------|
B|---------------------------------|---------------------------------|
G|---------------------------------|---------------------------------|
D|-4=----4=----4/5\4=----4=----2h5\|-4=----4=----4/5\2=----2=----4/5\|
A|-2=----2=----2/3\2=----2=----0h3\|-2=----2=----2/3\0=----0=----2/3\|
E|---0-0---0-0-------0-0---0-0-----|---0-0---0-0-------0-0---0-0-----|
     PM-   PM-       PM-   PM-         PM-   PM-       PM-   PM-
           Rebuilding an army                    Make the nation proud

  Guitar 1
   Bm                                                A
e|---------------------------------|---------------------------------|
B|---------------------------------|---------------------------------|
G|---------------------------------|---------------------------------|
D|-4=----4=----4/5\4=----4=----2h5\|-4=----4=----4/5\2=----2=----2h4-|
A|-2=----2=----2/3\2=----2=----0h3\|-2=----2=----2/3\0=----0=----0h2-|
E|---0-0---0-0-------0-0---0-0-----|---0-0---0-0-------0-0---0-0-----|
 |   PM-   PM-       PM-   PM-         PM-   PM-       PM-   PM-
 |Guitar 2
e|---------------------------------|---------------------------------|
B|---------------------------------|---------------------------------|
G|---------------------------------|---------------------------------|
D|-4=----4=----4/5\4=----4=----2h5\|-4=----4=----4/5\2=----2=----2h4-|
A|-2=----2=----2/3\2=----2=----0h3\|-2=----2=----2/3\0=----0=----0h2-|
E|---0-0---0-0-------0-0---0-0-----|---0-0---0-0-------0-0---0-0-----|
     PM-   PM-       PM-   PM-         PM-   PM-       PM-   PM-
           Disregarding the treaty       Secret plans for "lebensraum"

  Guitar 1
  4/4                         2/4
   C                           G     D/F#
e|---------------------------|--------------|
B|---------------------------|--------------|
G|---------------------------|--------------|
D|-5=========================|-5=====4=====-|
A|-3=========================|-5=====5=====-|
E|---------------------------|-3=====2=====-|
 |Guitar 2
e|---------------------------|--------------|
B|---------------------------|--------------|
G|---------------------------|--------------|
D|-5=========================|-5=====4=====-|
A|-3=========================|-5=====5=====-|
E|---------------------------|-3=====2=====-|
      Start the holocaust, the Reich will

[Chorus 1)
(2:12)
  Guitar 1
  4/4
   Em                                                                                     C        G    D/F#
e|----------------------------|----------------------------|----------------------------|--------------------|
B|----------------------------|----------------------------|----------------------------|--------------------|
G|----------------------------|----------------------------|----------------------------|--------------------|
D|----------------------------|--------------------------7=|----------------------------|----------5====4====|
A|-7=----10=----9=----10-9----|-7=-----10=----9=----9-10---|-7=----10=----9=----10-9----|-10=======5====5====|
E|---0-0----0-0---0-0------10=|---0-0-----0-0---0-0--------|---0-0----0-0---0-0------10=|-8========3====2====|
 |   PM-    PM-   PM-             PM-     PM-   PM-            PM-    PM-   PM-
 |Guitar 2
e|----------------------------|----------------------------|----------------------------|--------------------|
B|----------------------------|----------------------------|----------------------------|--------------------|
G|----------------------------|----------------------------|----------------------------|--------------------|
D|----------------------------|--------------------------7=|----------------------------|----------5====4====|
A|-7=----10=----9=----10-9----|-7=-----10=----9=----9-10---|-7=----10=----9=----10-9----|-10=======5====5====|
E|---0-0----0-0---0-0------10=|---0-0-----0-0---0-0--------|---0-0----0-0---0-0------10=|-8========3====2====|
     PM-    PM-   PM-             PM-     PM-   PM-            PM-    PM-   PM-
   rise!                                                                            Propaganda, the Reich will

  Guitar 1
   Em                                                                                     C        G    D/F#
e|----------------------------|----------------------------|----------------------------|--------------------|
B|----------------------------|----------------------------|----------------------------|--------------------|
G|----------------------------|----------------------------|----------------------------|--------------------|
D|----------------------------|--------------------------7=|----------------------------|----------5====4====|
A|-7=----10=----9=----10-9----|-7=-----10=----9=----9-10---|-7=----10=----9=----10-9----|-10=======5====5====|
E|---0-0----0-0---0-0------10=|---0-0-----0-0---0-0--------|---0-0----0-0---0-0------10=|-8========3====2====|
 |   PM-    PM-   PM-             PM-     PM-   PM-            PM-    PM-   PM-
 |Guitar 2
e|----------------------------|----------------------------|----------------------------|--------------------|
B|----------------------------|----------------------------|----------------------------|--------------------|
G|----------------------------|----------------------------|----------------------------|--------------------|
D|--------9=----7=----9--7----|--------9=----7=----7-9--10=|--------9=----7=----9--7----|----------9====7====|
A|-10=---------------------9==|-10=------------------------|-10=---------------------9==|-10=======----------|
E|----0-0---0-0---0-0---------|----0-0---0-0---0-0---------|----0-0---0-0---0-0---------|--------------------|
      PM-   PM-   PM-              PM-   PM-   PM-              PM-   PM-   PM-
   rise!                                                                                    To last a thousand

[Refrain]
(2:35)
  Guitar 1
   Em                                                                                   Vib. in time to music
e|---------------------------------|-----------------------|---------------------------------|---------------|
B|---------------------------------|-----------------------|---------------------------------|---------------|
G|-----16---17=----14---16=----12--|-14=-----16---12\11-9==|-----16---17=----14---19=----17--|-16~~~~~~~~~---|
D|---------------------------------|-----------------------|---------------------------------|------------12\|
A|-----14---15=----12---14=----10--|-12=-----14---10\9--7==|-----14---15=----12---17=----15--|-14~~~~~~~~~12\|
E|-0-0----0----0-0----0----0-0----0|-----0-0----0----------|-0-0----0----0-0----0----0-0----0|------------12\|
 | PM-    PM   PM-    PM   PM-    PM     PM-    PM           PM-    PM   PM-    PM   PM-    PM
 |Guitar 2
e|---------------------------------|-----------------------|---------------------------------|---------------|
B|---------------------------------|-----------------------|---------------------------------|---------------|
G|-----16---17=----14---16=----12--|-14=-----16---12\11-9==|-----16---17=----14---19=----17--|-16~~~~~~~~~---|
D|---------------------------------|-----------------------|---------------------------------|------------12\|
A|-----14---15=----12---14=----10--|-12=-----14---10\9--7==|-----14---15=----12---17=----15--|-14~~~~~~~~~12\|
E|-0-0----0----0-0----0----0-0----0|-----0-0----0----------|-0-0----0----0-0----0----0-0----0|------------12\|
   PM-    PM   PM-    PM   PM-    PM     PM-    PM           PM-    PM   PM-    PM   PM-    PM
   years!

  Guitar 1
   Em                                                                                   Vib. in time to music
e|---------------------------------|-----------------------|---------------------------------|---------------|
B|---------------------------------|-----------------------|---------------------------------|---------------|
G|-----16---17=----14---16=----12--|-14=-----16---12\11-9==|-----16---17=----14---19=----17--|-16~~~~~~~~~---|
D|---------------------------------|-----------------------|---------------------------------|------------12\|
A|-----14---15=----12---14=----10--|-12=-----14---10\9--7==|-----14---15=----12---17=----15--|-14~~~~~~~~~12\|
E|-0-0----0----0-0----0----0-0----0|-----0-0----0----------|-0-0----0----0-0----0----0-0----0|------------12\|
 | PM-    PM   PM-    PM   PM-    PM     PM-    PM           PM-    PM   PM-    PM   PM-    PM
 |Guitar 2
e|---------------------------------|-----------------------|---------------------------------|---------------|
B|---------------------------------|-----------------------|---------------------------------|---------------|
G|-----16---17=----14---16=----12--|-14=-----16---12\11-9==|-----16---17=----14---19=----17--|-16~~~~~~~~~---|
D|---------------------------------|-----------------------|---------------------------------|------------12\|
A|-----14---15=----12---14=----10--|-12=-----14---10\9--7==|-----14---15=----12---17=----15--|-14~~~~~~~~~12\|
E|-0-0----0----0-0----0----0-0----0|-----0-0----0----------|-0-0----0----0-0----0----0-0----0|------------12\|
   PM-    PM   PM-    PM   PM-    PM     PM-    PM           PM-    PM   PM-    PM   PM-    PM

[Verse 2]
(2:58)
  Guitar 1
   Em
e|--------------------|---------------------|
B|--------------------|---------------------|
G|--------------------|---------------------|
D|-2==================|=====================|
A|-2==================|=====================|
E|-0==================|=====================|
 |Guitar 2
e|--------------------|---------------------|
B|--------------------|---------------------|
G|--------------------|---------------------|
D|-2==================|=====================|
A|-2==================|=====================|
E|-0==================|=====================|

  Guitar 1
                                                           C              D                  Em
e|--------------------------|----------------------------|---------------------------------|-----------------|
B|--------------------------|----------------------------|---------------------------------|-----------------|
G|--------------------------|----------------------------|-5==============7================|-9===============|
D|--------------------------|----------------------12\---|-5==============7================|-9===============|
A|--------------------------|----------------------12\---|-3==============5================|-7===============|
E|--------------------------|----------------------12\---|---------------------------------|-----------------|
 |Guitar 2
e|--------------------------|----------------------------|---------------------------------|-----------------|
B|--------------------------|----------------------------|---------------------------------|-----------------|
G|--------------------------|----------------------------|-5==============7================|-9===============|
D|--------------------------|----------------------12\---|-5==============7================|-9===============|
A|--------------------------|----------------------12\---|-3==============5================|-7===============|
E|--------------------------|----------------------12\---|---------------------------------|-----------------|
     Burning books to spread anti-Semite propaganda              Who will stop the madman's reign?

  Guitar 1
                                                                      G         D/F#               Em
e|-------------------------|----------------------------------------|----------------------------|-----------|
B|-------------------------|----------------------------------------|----------------------------|-----------|
G|-------------------------|----------------------------------------|----------------------------|-----------|
D|-------------------------|----------------------------------12\---|-5=========4================|-2=========|
A|-------------------------|----------------------------------12\---|-5=========5================|-2=========|
E|-------------------------|----------------------------------12\---|-3=========2================|-0=========|
 |Guitar 2
e|-------------------------|----------------------------------------|----------------------------|-----------|
B|-------------------------|----------------------------------------|----------------------------|-----------|
G|-------------------------|----------------------------------------|----------------------------|-----------|
D|-------------------------|----------------------------------12\---|-5=========4================|-2=========|
A|-------------------------|----------------------------------12\---|-5=========5================|-2=========|
E|-------------------------|----------------------------------12\---|-3=========2================|-0=========|
     Night of broken glass, send the Jews to Dachau death camp             On a path to certain death

[Pre-Chorus 2]
(3:28)
  Guitar 1
  5/4
   Bm                                                A
e|---------------------------------|---------------------------------|
B|---------------------------------|---------------------------------|
G|---------------------------------|---------------------------------|
D|-4=----4=----4/5\4=----4=----2h5\|-4=----4=----4/5\2=----2=----4/5\|
A|-2=----2=----2/3\2=----2=----0h3\|-2=----2=----2/3\0=----0=----2/3\|
E|---0-0---0-0-------0-0---0-0-----|---0-0---0-0-------0-0---0-0-----|
 |   PM-   PM-       PM-   PM-         PM-   PM-       PM-   PM-
 |Guitar 2
e|---------------------------------|---------------------------------|
B|---------------------------------|---------------------------------|
G|---------------------------------|---------------------------------|
D|-4=----4=----4/5\4=----4=----2h5\|-4=----4=----4/5\2=----2=----4/5\|
A|-2=----2=----2/3\2=----2=----0h3\|-2=----2=----2/3\0=----0=----2/3\|
E|---0-0---0-0-------0-0---0-0-----|---0-0---0-0-------0-0---0-0-----|
     PM-   PM-       PM-   PM-         PM-   PM-       PM-   PM-
           The "Anschluss" completed             On the brink of war

  Guitar 1
   Bm                                                A
e|---------------------------------|---------------------------------|
B|---------------------------------|---------------------------------|
G|---------------------------------|---------------------------------|
D|-4=----4=----4/5\4=----4=----2h5\|-4=----4=----4/5\2=----2=----2h4-|
A|-2=----2=----2/3\2=----2=----0h3\|-2=----2=----2/3\0=----0=----0h2-|
E|---0-0---0-0-------0-0---0-0-----|---0-0---0-0-------0-0---0-0-----|
 |   PM-   PM-       PM-   PM-         PM-   PM-       PM-   PM-
 |Guitar 2
e|---------------------------------|---------------------------------|
B|---------------------------------|---------------------------------|
G|---------------------------------|---------------------------------|
D|-4=----4=----4/5\4=----4=----2h5\|-4=----4=----4/5\2=----2=----2h4-|
A|-2=----2=----2/3\2=----2=----0h3\|-2=----2=----2/3\0=----0=----0h2-|
E|---0-0---0-0-------0-0---0-0-----|---0-0---0-0-------0-0---0-0-----|
     PM-   PM-       PM-   PM-         PM-   PM-       PM-   PM-
           Act brutal with no pity           Be harsh, show no remorse

  Guitar 1
  4/4                           2/4
   C                             G     D/F#
e|-----------------------------|--------------|
B|-----------------------------|--------------|
G|-----------------------------|--------------|
D|-5===========================|-5=====4=====-|
A|-3===========================|-5=====5=====-|
E|-----------------------------|-3=====2=====-|
 |Guitar 2
e|-----------------------------|--------------|
B|-----------------------------|--------------|
G|-----------------------------|--------------|
D|-5===========================|-5=====4=====-|
A|-3===========================|-5=====5=====-|
E|-----------------------------|-3=====2=====-|
      Start the war machine, the Reich will

[Chorus 2)
(3:47)
  Guitar 1
  4/4
   Em                                                                                     C        G    D/F#
e|----------------------------|----------------------------|----------------------------|--------------------|
B|----------------------------|----------------------------|----------------------------|--------------------|
G|----------------------------|----------------------------|----------------------------|--------------------|
D|----------------------------|--------------------------7=|----------------------------|----------5====4====|
A|-7=----10=----9=----10-9----|-7=-----10=----9=----9-10---|-7=----10=----9=----10-9----|-10-------5====5====|
E|---0-0----0-0---0-0------10=|---0-0-----0-0---0-0--------|---0-0----0-0---0-0------10=|-8--------3====2====|
 |   PM-    PM-   PM-             PM-     PM-   PM-            PM-    PM-   PM-
 |Guitar 2
e|----------------------------|----------------------------|----------------------------|--------------------|
B|----------------------------|----------------------------|----------------------------|--------------------|
G|----------------------------|----------------------------|----------------------------|--------------------|
D|----------------------------|--------------------------7=|----------------------------|----------5====4====|
A|-7=----10=----9=----10-9----|-7=-----10=----9=----9-10---|-7=----10=----9=----10-9----|-10-------5====5====|
E|---0-0----0-0---0-0------10=|---0-0-----0-0---0-0--------|---0-0----0-0---0-0------10=|-8--------3====2====|
     PM-    PM-   PM-             PM-     PM-   PM-            PM-    PM-   PM-
   rise!                                                                            Propaganda, the Reich will

  Guitar 1
   Em                                                                                     C        G    D/F#
e|----------------------------|----------------------------|----------------------------|--------------------|
B|----------------------------|----------------------------|----------------------------|--------------------|
G|----------------------------|----------------------------|----------------------------|--------------------|
D|----------------------------|--------------------------7=|----------------------------|----------5====4====|
A|-7=----10=----9=----10-9----|-7=-----10=----9=----9-10---|-7=----10=----9=----10-9----|-10-------5====5====|
E|---0-0----0-0---0-0------10=|---0-0-----0-0---0-0--------|---0-0----0-0---0-0------10=|-8--------3====2====|
 |   PM-    PM-   PM-             PM-     PM-   PM-            PM-    PM-   PM-
 |Guitar 2
e|----------------------------|----------------------------|----------------------------|--------------------|
B|----------------------------|----------------------------|----------------------------|--------------------|
G|----------------------------|----------------------------|----------------------------|--------------------|
D|--------9=----7=----9--7----|--------9=----7=----7-9--10=|--------9=----7=----9--7----|----------9====7====|
A|-10=---------------------9==|-10=------------------------|-10=---------------------9==|-10=======----------|
E|----0-0---0-0---0-0---------|----0-0---0-0---0-0---------|----0-0---0-0---0-0---------|--------------------|
      PM-   PM-   PM-              PM-   PM-   PM-              PM-   PM-   PM-
   rise!                                                                                    To last a thousand

[Bridge 1]
(4:10)
  Guitar 1
   Em
e|-----------------------------------|-------------------------------|
B|-----------------------------------|-------------------------------|
G|-----12---11=----14-12-11---7---9==|-----12---11=----7-9-11---9====|
D|-----------------------------------|-------------------------------|
A|-----10---9==----12-10-9----5---7==|-----10---9==----5-7-9----7====|
E|-0-0----0----0-0----------0---0----|-0-0----0----0-0--------0------|
 | PM-    PM   PM-          PM  PM     PM-    PM   PM-        PM
 |Guitar 2
e|-----------------------------------|-------------------------------|
B|-----------------------------------|-------------------------------|
G|-----12---11=----14-12-11---7---9==|-----12---11-----7-9-11---9====|
D|-----------------------------------|-------------------------------|
A|-----10---9==----12-10-9----5---7==|-----10---9------5-7-9----7====|
E|-0-0----0----0-0----------0---0----|-0-0----0----0-0--------0------|
   PM-    PM   PM-          PM  PM     PM-    PM   PM-        PM
   years!

  Guitar 1
   Em
e|-----------------------------------|------------------------------------------|
B|-----------------------------------|------------------------------------------|
G|-----12---11=----14-12-11---7---9==|-----12---11---7-9-11-9-7---9=============|
D|-----------------------------------|------------------------------------------|
A|-----10---9==----12-10-9----5---7==|-----10---9----5-7-9--7-5---7=============|
E|-0-0----0----0-0----------0---0----|-0-0----0----0------------0---------------|
   PM-    PM   PM-          PM  PM     PM-    PM  PM            PM
 |Guitar 2
e|-----------------------------------|------------------------------------------|
B|-----------------------------------|------------------------------------------|
G|-----12---11=----14-12-11---7---9==|-----12---11---7-9-11-9-7---9=============|
D|-----------------------------------|------------------------------------------|
A|-----10---9==----12-10-9----5---7==|-----10---9----5-7-9--7-5---7=============|
E|-0-0----0----0-0----------0---0----|-0-0----0----0------------0---------------|
   PM-    PM   PM-          PM  PM     PM-    PM  PM            PM
     I see an eagle rising                                           The rise of

  Guitar 1
   Em
e|-----------------------------------|-------------------------------|
B|-----------------------------------|-------------------------------|
G|-----12---11=----14-12-11---7---9==|-----12---11-----7-9-11---9====|
D|-----------------------------------|-------------------------------|
A|-----10---9==----12-10-9----5---7==|-----10---9------5-7-9----7====|
E|-0-0----0----0-0----------0---0----|-0-0----0----0-0--------0------|
 | PM-    PM   PM-          PM  PM     PM-    PM   PM-        PM
 |Guitar 2
e|-----------------------------------|-------------------------------|
B|-----------------------------------|-------------------------------|
G|-----12---11=----14-12-11---7---9==|-----12---11-----7-9-11---9====|
D|-----------------------------------|-------------------------------|
A|-----10---9==----12-10-9----5---7==|-----10---9------5-7-9----7====|
E|-0-0----0----0-0----------0---0----|-0-0----0----0-0--------0------|
   PM-    PM   PM-          PM  PM     PM-    PM   PM-        PM
  evil!

  Guitar 1
                                      3/4
   Em
e|-----------------------------------|--------------------------|
B|-----------------------------------|--------------------------|
G|-----12---11=----14-12-11---7---9==|-----12---11---7-9-11-9-7=|
D|-----------------------------------|--------------------------|
A|-----10---9==----12-10-9----5---7==|-----10---9----5-7-9--7-5=|
E|-0-0----0----0-0----------0---0----|-0-0----0----0------------|
   PM-    PM   PM-          PM  PM     PM-    PM  PM
 |Guitar 2
e|-----------------------------------|--------------------------|
B|-----------------------------------|--------------------------|
G|-----12---11=----14-12-11---7---9==|-----12---11---7-9-11-9-7=|
D|-----------------------------------|--------------------------|
A|-----10---9==----12-10-9----5---7==|-----10---9----5-7-9--7-5=|
E|-0-0----0----0-0----------0---0----|-0-0----0----0------------|
   PM-    PM   PM-          PM  PM     PM-    PM  PM

[Keyboard Solo]
(4:33)
  Guitar 1
  4/4
   Bm
e|---------------------------------|-------------------------|
B|---------------------------------|-------------------------|
G|---------------------------------|-------------------------|
D|-4-x-4-x-5-x-2-4-x-9-x-8-x-5-4-2-|-4-x-4-x-5-x-2-4---------|
A|-2-x-2-x-3-x-0-2-x-7-x-6-x-3-2-0-|-2-x-2-x-3-x-0-2---------|
E|---------------------------------|-------------------------|
 |   PM  PM  PM    PM  PM  PM          PM  PM  PM
 |Guitar 2
e|---------------------------------|-------------------------|
B|---------------------------------|-------------------------|
G|---------------------------------|-------------------------|
D|-4-x-4-x-5-x-2-4-x-9-x-8-x-5-4-2-|-4-x-4-x-5-x-2-4---------|
A|-2-x-2-x-3-x-0-2-x-7-x-6-x-3-2-0-|-2-x-2-x-3-x-0-2---------|
E|---------------------------------|-------------------------|
     PM  PM  PM    PM  PM  PM          PM  PM  PM

  Guitar 1
   Bm                                              A
e|---------------------------------|-------------------------|
B|---------------------------------|-------------------------|
G|---------------------------------|-------------------------|
D|-4-x-4-x-5-x-2-4-x-9-x-8-x-5-4-2-|-4-x-4-x-5-x-4-2=========|
A|-2-x-2-x-3-x-0-2-x-7-x-6-x-3-2-0-|-2-x-2-x-3-x-2-0=========|
E|---------------------------------|-------------------------|
 |   PM  PM  PM    PM  PM  PM          PM  PM  PM
 |Guitar 2
e|---------------------------------|-------------------------|
B|---------------------------------|-------------------------|
G|---------------------------------|-------------------------|
D|-4-x-4-x-5-x-2-4-x-9-x-8-x-5-4-2-|-4-x-4-x-5-x-4-2=========|
A|-2-x-2-x-3-x-0-2-x-7-x-6-x-3-2-0-|-2-x-2-x-3-x-2-0=========|
E|---------------------------------|-------------------------|
     PM  PM  PM    PM  PM  PM          PM  PM  PM

  Guitar 1
   Bm
e|---------------------------------|-------------------------|
B|---------------------------------|-------------------------|
G|---------------------------------|-------------------------|
D|-4-x-4-x-5-x-2-4-x-9-x-8-x-5-4-2-|-4-x-4-x-5-x-2-4---------|
A|-2-x-2-x-3-x-0-2-x-7-x-6-x-3-2-0-|-2-x-2-x-3-x-0-2---------|
E|---------------------------------|-------------------------|
 |   PM  PM  PM    PM  PM  PM          PM  PM  PM
 |Guitar 2
e|---------------------------------|-------------------------|
B|---------------------------------|-------------------------|
G|---------------------------------|-------------------------|
D|-4-x-4-x-5-x-2-4-x-9-x-8-x-5-4-2-|-4-x-4-x-5-x-2-4---------|
A|-2-x-2-x-3-x-0-2-x-7-x-6-x-3-2-0-|-2-x-2-x-3-x-0-2---------|
E|---------------------------------|-------------------------|
     PM  PM  PM    PM  PM  PM          PM  PM  PM

  Guitar 1
                                                              2/4
   Bm                                              A
e|---------------------------------|-------------------------|------------|
B|---------------------------------|-------------------------|------------|
G|---------------------------------|-------------------------|------------|
D|-4-x-4-x-5-x-2-4-x-9-x-8-x-5-4-2-|-4-x-4-x-5-x-4-2---------|------------|
A|-2-x-2-x-3-x-0-2-x-7-x-6-x-3-2-0-|-2-x-2-x-3-x-2-0---------|------------|
E|---------------------------------|-------------------------|------------|
 |   PM  PM  PM    PM  PM  PM          PM  PM  PM
 |Guitar 2
e|---------------------------------|-------------------------|------------|
B|---------------------------------|-------------------------|------------|
G|---------------------------------|-------------------------|------------|
D|-4-x-4-x-5-x-2-4-x-9-x-8-x-5-4-2-|-4-x-4-x-5-x-4-2---------|------------|
A|-2-x-2-x-3-x-0-2-x-7-x-6-x-3-2-0-|-2-x-2-x-3-x-2-0---------|------------|
E|---------------------------------|-------------------------|------------|
     PM  PM  PM    PM  PM  PM          PM  PM  PM

[Bridge 2]
(4:57)
   Guitar 1
  4/4
  Em                  Am                        E                      F
e|-------------------|-------------------------|----------------------|------------------------|
B|-------------------|-------------------------|----------------------|------------------------|
G|-------------------|-------------------------|----------------------|------------------------|
D|-------------------|-------------------------|----------------------|------------------------|
A|-------------------|-------------------------|----------------------|------------------------|
E|-------------------|-------------------------|----------------------|------------------------|
 |Guitar 2
e|-------------------|-------------------------|----------------------|------------------------|
B|-------------------|-------------------------|----------------------|------------------------|
G|-------------------|-------------------------|----------------------|------------------------|
D|-------------------|-------------------------|----------------------|------------------------|
A|-------------------|-------------------------|----------------------|------------------------|
E|-------------------|-------------------------|----------------------|------------------------|
  In the last days of peace  Europe holding its breath  An invasion is coming, but when will it

  Guitar 1
                  2/4         4/4
  Am              Em          Am                        F
e|---------------|-----------|-------------------------|-----------------------------|
B|---------------|-----------|-------------------------|-----------------------------|
G|---------------|-----------|-------------------------|-----------------------------|
D|---------------|-----------|-------------------------|-----------------------------|
A|---------------|-----------|-------------------------|-----------------------------|
E|---------------|-----------|-------------------------|-----------------------------|
 |Guitar 2
e|---------------|-----------|-------------------------|-----------------------------|
B|---------------|-----------|-------------------------|-----------------------------|
G|---------------|-----------|-------------------------|-----------------------------|
D|---------------|-----------|-------------------------|-----------------------------|
A|---------------|-----------|-------------------------|-----------------------------|
E|---------------|-----------|-------------------------|-----------------------------|
  start? Who will be first to fall? Who will be last to stand? Who will stop all this

  Guitar 1
  C                      Dm                   E                     G  D/F# G D/F#  D
e|----------------------|--------------------|--------------------|-----------------2---|
B|----------------------|--------------------|--------------------|-----------------3---|
G|----------------------|--------------------|--------------------|-----------------2---|
D|----------------------|--------------------|--------------------|-5==4----5==4----0---|
A|----------------------|--------------------|--------------------|-5==5----5==5--------|
E|----------------------|--------------------|--------------------|-3==2----3==2--------|
 |Guitar 2
e|----------------------|--------------------|--------------------|-----------------2---|
B|----------------------|--------------------|--------------------|-----------------3---|
G|----------------------|--------------------|--------------------|-----------------2---|
D|----------------------|--------------------|--------------------|-5==4----5==4----0---|
A|----------------------|--------------------|--------------------|-5==5----5==5--------|
E|----------------------|--------------------|--------------------|-3==2----3==2--------|
  madness that has consequences no man understand?                  No man, no land!

[Guitar Solo, Part I]
(5:31)
  Guitar 1
   Em
e|--------------------|------------------------|
B|--------------------|------------------------|
G|--------------------|------------------------|
D|-2==================|========================|
A|-2==================|========================|
E|-0==================|========================|
 |Guitar 2
e|--------------------|------------------------|
B|--------------------|------------------------|
G|--------------------|------------------------|
D|-2==================|========================|
A|-2==================|========================|
E|-0==================|========================|
 |Guitar 3
e|--------------------|------------------------|
B|--------------------|-----------------v8-v10-|
G|--------------------|--------------v9--------|
D|--------------------|------------------------|
A|--------------------|------------------------|
E|--------------------|------------------------|

  Guitar 1
                                                              C                D              Em
e|-------------------------|--------------------------------|-------------------------------|----------------|
B|-------------------------|--------------------------------|-------------------------------|----------------|
G|-------------------------|--------------------------------|-5================7============|-9==============|
D|-------------------------|--------------------------12\---|-5================7============|-9==============|
A|-------------------------|--------------------------12\---|-3================5============|-7==============|
E|-------------------------|--------------------------12\---|-------------------------------|----------------|
 |Guitar 2
e|-------------------------|--------------------------------|-------------------------------|----------------|
B|-------------------------|--------------------------------|-------------------------------|----------------|
G|-------------------------|--------------------------------|-5================7============|-9==============|
D|-------------------------|--------------------------12\---|-5================7============|-9==============|
A|-------------------------|--------------------------12\---|-3================5============|-7==============|
E|-------------------------|--------------------------12\---|-------------------------------|----------------|
 |Guitar 3
e|-------------v10pb12==r10~~~~~--------|-------------------|-------------------------------|----------------|
B|-v10b12~~~~~-------------------v12-v10|-v12~~~~~~~~~~~~~~~|-------------------------------|----------------|
G|--------------------------------------|-------------------|-0^(5)==w=wr=w=wr=-------------|----------------|
D|--------------------------------------|-------------------|-------------------------------|----------------|
A|--------------------------------------|-------------------|-------------------9===========|-7~~~~~~~~~~~~~~|
E|--------------------------------------|-------------------|-------------------------------|----------------|

  Guitar 1
                                                                       G             D/F#        Em
e|-------------------------------|-----------------------------------|-------------------------|-------------|
B|-------------------------------|-----------------------------------|-------------------------|-------------|
G|-------------------------------|-----------------------------------|-------------------------|-------------|
D|-------------------------------|----------------------------12\----|-5=============4=========|-2===========|
A|-------------------------------|----------------------------12\----|-5=============5=========|-2===========|
E|-------------------------------|----------------------------12\----|-3=============2=========|-0===========|
 |Guitar 2
e|-------------------------------|-----------------------------------|-------------------------|-------------|
B|-------------------------------|-----------------------------------|-------------------------|-------------|
G|-------------------------------|-----------------------------------|-------------------------|-------------|
D|-------------------------------|----------------------------12\----|-5=============4=========|-2===========|
A|-------------------------------|----------------------------12\----|-5=============5=========|-2===========|
E|-------------------------------|----------------------------12\----|-3=============2=========|-0===========|
 |Guitar 3
e|------------12-----14--12----12|/14-----14h15-12--15/17-14--17b19==|-17b19~~~17-15-17~~~19-20|-19~~17-15~~~|
B|--------12----15-12--15--12----|---15p12--------12--------15-------|-------------------------|-------------|
G|--9-12-9--12---------------12--|-----------------------------------|-------------------------|-------------|
D|---9---------------------------|-----------------------------------|-------------------------|-------------|
A|-7-----------------------------|-----------------------------------|-------------------------|-------------|
E|-------------------------------|-----------------------------------|-------------------------|-------------|

[Guitar Solo, Part II]
(6:00)
  Guitar 1
  5/4
   Bm                                                                   A
e|-------------------------------------------------|--------------------------------------|
B|-------------------------------------------------|--------------------------------------|
G|-------------------------------------------------|--------------------------------------|
D|-4=====------4====-----4/5\4====-----4=------2h5\|-4==----4===----4/5\2===----2=----4/5\|
A|-2=====------2====-----2/3\2====-----2=------0h3\|-2==----2===----2/3\0===----0=----2/3\|
E|-------0--0-------0--0----------0--0-----0-0-----|----0-0-----0-0---------0-0---0-0-----|
 |       PM--       PM--          PM--     PM-          PM-     PM-         PM-   PM-
 |Guitar 2
e|-------------------------------------------------|--------------------------------------|
B|-------------------------------------------------|--------------------------------------|
G|-------------------------------------------------|--------------------------------------|
D|-4=====------4====-----4/5\4====-----4=------2h5\|-4==----4===----4/5\2===----2=----4/5\|
A|-2=====------2====-----2/3\2====-----2=------0h3\|-2==----2===----2/3\0===----0=----2/3\|
E|-------0--0-------0--0----------0--0-----0-0-----|----0-0-----0-0---------0-0---0-0-----|
 |       PM--       PM--          PM--     PM-          PM-     PM-         PM-   PM-
 |Guitar 3
e|-17p14\11-14p11\8-11p8\5-8-----------------------|--------------------------------------|
B|---------------------------10\7-10p7\4-7---------|--------------------------------------|
G|-----------------------------------------8\5-8p5\|2/5\2---------------------------------|
D|-------------------------------------------------|------4h7p4-1h4p1---------------------|
A|-------------------------------------------------|------------------3h6p3-0=========2-3-|
E|-------------------------------------------------|--------------------------------------|

  Guitar 1
   Bm                                                            A
e|-------------------------------------|---------------------------------------------------------------|
B|-------------------------------------|---------------------------------------------------------------|
G|-------------------------------------|---------------------------------------------------------------|
D|-4=----4=----4/5\4=----4=------2--h5\|-4====-----4====----4-/5\2====-------2=======---------2---h4---|
A|-2=----2=----2/3\2=----2=------0--h3\|-2====-----2====----2-/3\0====-------0=======---------0---h2---|
E|---0-0---0-0-------0-0---0--0--------|------0--0------0-0-----------0--0-----------0----0------------|
 |   PM-   PM-       PM-   PM--               PM--      PM-           PM--           PM----
 |Guitar 2
e|-------------------------------------|---------------------------------------------------------------|
B|-------------------------------------|---------------------------------------------------------------|
G|-------------------------------------|---------------------------------------------------------------|
D|-4=----4=----4/5\4=----4=------2--h5\|-4====-----4====----4-/5\2====-------2=---------------2---h4---|
A|-2=----2=----2/3\2=----2=------0--h3\|-2====-----2====----2-/3\0====-------0=---------------0---h2---|
E|---0-0---0-0-------0-0---0--0--------|------0--0------0-0-----------0--0-----------0----0------------|
 |   PM-   PM-       PM-   PM--               PM--      PM-           PM--           PM----
 |Guitar 3
e|-------------------------------------|------------------------------------------------11-12-14-15-17-|
B|------------/12~~~~~~~~~~~~~---------|-------------------------------------8-10-12-13----------------|
G|----------------------------12-14-11-|-12-9-11-8-9----8-------------8-9-11---------------------------|
D|-------------------------------------|-------------10---9-10-7-9-10----------------------------------|
A|-2=====db----------------------------|---------------------------------------------------------------|
E|-------------------------------------|---------------------------------------------------------------|

  Guitar 1
  4/4                         2/4
   C                           G     D/F#
e|---------------------------|--------------|
B|---------------------------|--------------|
G|---------------------------|--------------|
D|-5=========================|-5=====4=====-|
A|-3=========================|-5=====5=====-|
E|---------------------------|-3=====2=====-|
 |Guitar 2
e|---------------------------|--------------|
B|---------------------------|--------------|
G|---------------------------|--------------|
D|-5=========================|-5=====4=====-|
A|-3=========================|-5=====5=====-|
E|---------------------------|-3=====2=====-|
 |Guitar 3
e|-18b20~~~~~~~~~~~~~~~~~~~~~|-20b22~~~~~~~~|
B|---------------------------|--------------|
G|---------------------------|--------------|
D|---------------------------|--------------|
A|---------------------------|--------------|
E|---------------------------|--------------|
      Start the holocaust, the Reich will

[Chorus 3)
(6:19)
  Guitar 1
  4/4
   Em                                                                                     C        G    D/F#
e|----------------------------|----------------------------|----------------------------|--------------------|
B|----------------------------|----------------------------|----------------------------|--------------------|
G|----------------------------|----------------------------|----------------------------|--------------------|
D|----------------------------|--------------------------7=|----------------------------|----------5====4====|
A|-7=----10=----9=----10-9----|-7=-----10=----9=----9-10---|-7=----10=----9=----10-9----|-10=======5====5====|
E|---0-0----0-0---0-0------10=|---0-0-----0-0---0-0--------|---0-0----0-0---0-0------10=|-8========3====2====|
 |   PM-    PM-   PM-             PM-     PM-   PM-            PM-    PM-   PM-
 |Guitar 2
e|----------------------------|----------------------------|----------------------------|--------------------|
B|----------------------------|----------------------------|----------------------------|--------------------|
G|----------------------------|----------------------------|----------------------------|--------------------|
D|--------9=----7=----9--7----|--------9=----7=----7-9--10=|--------9=----7=----9--7----|----------9====7====|
A|-10=---------------------9==|-10=------------------------|-10=---------------------9==|-10=======----------|
E|----0-0---0-0---0-0---------|----0-0---0-0---0-0---------|----0-0---0-0---0-0---------|--------------------|
 |    PM-   PM-   PM-              PM-   PM-   PM-              PM-   PM-   PM-
 |Guitar 3
e|-22b24~~~~~~~~--------------|----------------------------|----------------------------|--------------------|
B|----------------------------|----------------------------|----------------------------|--------------------|
G|----------------------------|----------------------------|----------------------------|--------------------|
D|----------------------------|----------------------------|----------------------------|--------------------|
A|----------------------------|----------------------------|----------------------------|--------------------|
E|----------------------------|----------------------------|----------------------------|--------------------|
   rise!                                                                            Propaganda, the Reich will

  Guitar 1
   Em                                                                                     C        G    D/F#
e|----------------------------|----------------------------|----------------------------|--------------------|
B|----------------------------|----------------------------|----------------------------|--------------------|
G|----------------------------|----------------------------|----------------------------|--------------------|
D|----------------------------|--------------------------7=|----------------------------|----------5====4====|
A|-7=----10=----9=----10-9----|-7=-----10=----9=----9-10---|-7=----10=----9=----10-9----|-10=======5====5====|
E|---0-0----0-0---0-0------10=|---0-0-----0-0---0-0--------|---0-0----0-0---0-0------10=|-8========3====2====|
 |   PM-    PM-   PM-             PM-     PM-   PM-            PM-    PM-   PM-
 |Guitar 2
e|----------------------------|----------------------------|----------------------------|--------------------|
B|----------------------------|----------------------------|----------------------------|--------------------|
G|----------------------------|----------------------------|----------------------------|--------------------|
D|--------9=----7=----9--7----|--------9=----7=----7-9--10=|--------9=----7=----9--7----|----------9====7====|
A|-10=---------------------9==|-10=------------------------|-10=---------------------9==|-10=======----------|
E|----0-0---0-0---0-0---------|----0-0---0-0---0-0---------|----0-0---0-0---0-0---------|--------------------|
      PM-   PM-   PM-              PM-   PM-   PM-              PM-   PM-   PM-
   rise!                                                                                    To last a thousand

[Outro]
(6:43)
  Guitar 1
   Em                                                                                   Vib. in time to music
e|---------------------------------|-----------------------|---------------------------------|---------------|
B|---------------------------------|-----------------------|---------------------------------|---------------|
G|-----16---17=----14---16=----12--|-14=-----16---12\11-9==|-----16---17=----14---19=----17--|-16~~~~~~~~~---|
D|---------------------------------|-----------------------|---------------------------------|------------12\|
A|-----14---15=----12---14=----10--|-12=-----14---10\9--7==|-----14---15=----12---17=----15--|-14~~~~~~~~~12\|
E|-0-0----0----0-0----0----0-0----0|-----0-0----0----------|-0-0----0----0-0----0----0-0----0|------------12\|
 | PM-    PM   PM-    PM   PM-    PM     PM-    PM           PM-    PM   PM-    PM   PM-    PM
 |Guitar 2
e|---------------------------------|-----------------------|---------------------------------|---------------|
B|---------------------------------|-----------------------|---------------------------------|---------------|
G|-----16---17=----14---16=----12--|-14=-----16---12\11-9==|-----16---17=----14---19=----17--|-16~~~~~~~~~---|
D|---------------------------------|-----------------------|---------------------------------|------------12\|
A|-----14---15=----12---14=----10--|-12=-----14---10\9--7==|-----14---15=----12---17=----15--|-14~~~~~~~~~12\|
E|-0-0----0----0-0----0----0-0----0|-----0-0----0----------|-0-0----0----0-0----0----0-0----0|------------12\|
   PM-    PM   PM-    PM   PM-    PM     PM-    PM           PM-    PM   PM-    PM   PM-    PM
   years!

  Guitar 1
   Em                                                                                   Vib. in time to music
e|---------------------------------|-----------------------|---------------------------------|---------------|
B|---------------------------------|-----------------------|---------------------------------|---------------|
G|-----16---17=----14---16=----12--|-14=-----16---12\11-9==|-----16---17=----14---19=----17--|-16~~~~~~~~~---|
D|---------------------------------|-----------------------|---------------------------------|------------12\|
A|-----14---15=----12---14=----10--|-12=-----14---10\9--7==|-----14---15=----12---17=----15--|-14~~~~~~~~~12\|
E|-0-0----0----0-0----0----0-0----0|-----0-0----0----------|-0-0----0----0-0----0----0-0----0|------------12\|
 | PM-    PM   PM-    PM   PM-    PM     PM-    PM           PM-    PM   PM-    PM   PM-    PM
 |Guitar 2
e|---------------------------------|-----------------------|---------------------------------|---------------|
B|---------------------------------|-----------------------|---------------------------------|---------------|
G|-----16---17=----14---16=----12--|-14=-----16---12\11-9==|-----16---17=----14---19=----17--|-16~~~~~~~~~---|
D|---------------------------------|-----------------------|---------------------------------|------------12\|
A|-----14---15=----12---14=----10--|-12=-----14---10\9--7==|-----14---15=----12---17=----15--|-14~~~~~~~~~12\|
E|-0-0----0----0-0----0----0-0----0|-----0-0----0----------|-0-0----0----0-0----0----0-0----0|------------12\|
   PM-    PM   PM-    PM   PM-    PM     PM-    PM           PM-    PM   PM-    PM   PM-    PM
                                                                                                I see an eagle

  Guitar 1
   Em                                                                                   Vib. in time to music
e|---------------------------------|-----------------------|---------------------------------|---------------|
B|---------------------------------|-----------------------|---------------------------------|---------------|
G|-----16---17=----14---16=----12--|-14=-----16---12\11-9==|-----16---17=----14---19=----17--|-16~~~~~~~~~---|
D|---------------------------------|-----------------------|---------------------------------|------------12\|
A|-----14---15=----12---14=----10--|-12=-----14---10\9--7==|-----14---15=----12---17=----15--|-14~~~~~~~~~12\|
E|-0-0----0----0-0----0----0-0----0|-----0-0----0----------|-0-0----0----0-0----0----0-0----0|------------12\|
 | PM-    PM   PM-    PM   PM-    PM     PM-    PM           PM-    PM   PM-    PM   PM-    PM
 |Guitar 2
e|---------------------------------|-----------------------|---------------------------------|---------------|
B|---------------------------------|-----------------------|---------------------------------|---------------|
G|-----16---17=----14---16=----12--|-14=-----16---12\11-9==|-----16---17=----14---19=----17--|-16~~~~~~~~~---|
D|---------------------------------|-----------------------|---------------------------------|------------12\|
A|-----14---15=----12---14=----10--|-12=-----14---10\9--7==|-----14---15=----12---17=----15--|-14~~~~~~~~~12\|
E|-0-0----0----0-0----0----0-0----0|-----0-0----0----------|-0-0----0----0-0----0----0-0----0|------------12\|
   PM-    PM   PM-    PM   PM-    PM     PM-    PM           PM-    PM   PM-    PM   PM-    PM
  rising                                                                                           The rise of

  Guitar 1
   Em                                                                                   Vib. in time to music
e|---------------------------------|-----------------------|---------------------------------|---------------|
B|---------------------------------|-----------------------|---------------------------------|---------------|
G|-----16---17=----14---16=----12--|-14=-----16---12\11-9==|-----16---17=----14---19=----17--|-16~~~~~~~~~---|
D|---------------------------------|-----------------------|---------------------------------|------------12\|
A|-----14---15=----12---14=----10--|-12=-----14---10\9--7==|-----14---15=----12---17=----15--|-14~~~~~~~~~12\|
E|-0-0----0----0-0----0----0-0----0|-----0-0----0----------|-0-0----0----0-0----0----0-0----0|------------12\|
 | PM-    PM   PM-    PM   PM-    PM     PM-    PM           PM-    PM   PM-    PM   PM-    PM
 |Guitar 2
e|---------------------------------|-----------------------|---------------------------------|---------------|
B|---------------------------------|-----------------------|---------------------------------|---------------|
G|-----16---17=----14---16=----12--|-14=-----16---12\11-9==|-----16---17=----14---19=----17--|-16~~~~~~~~~---|
D|---------------------------------|-----------------------|---------------------------------|------------12\|
A|-----14---15=----12---14=----10--|-12=-----14---10\9--7==|-----14---15=----12---17=----15--|-14~~~~~~~~~12\|
E|-0-0----0----0-0----0----0-0----0|-----0-0----0----------|-0-0----0----0-0----0----0-0----0|------------12\|
   PM-    PM   PM-    PM   PM-    PM     PM-    PM           PM-    PM   PM-    PM   PM-    PM
  evil!

  Guitar 1
   Em                                                                                   Vib. in time to music
e|---------------------------------|-----------------------|---------------------------------|---------------|
B|---------------------------------|-----------------------|---------------------------------|---------------|
G|-----16---17=----14---16=----12--|-14=-----16---12\11-9==|-----16---17=----14---19=----17--|-16~~~~~~~~~---|
D|---------------------------------|-----------------------|---------------------------------|------------12\|
A|-----14---15=----12---14=----10--|-12=-----14---10\9--7==|-----14---15=----12---17=----15--|-14~~~~~~~~~12\|
E|-0-0----0----0-0----0----0-0----0|-----0-0----0----------|-0-0----0----0-0----0----0-0----0|------------12\|
 | PM-    PM   PM-    PM   PM-    PM     PM-    PM           PM-    PM   PM-    PM   PM-    PM
 |Guitar 2
e|---------------------------------|-----------------------|---------------------------------|---------------|
B|---------------------------------|-----------------------|---------------------------------|---------------|
G|-----16---17=----14---16=----12--|-14=-----16---12\11-9==|-----16---17=----14---19=----17--|-16~~~~~~~~~---|
D|---------------------------------|-----------------------|---------------------------------|------------12\|
A|-----14---15=----12---14=----10--|-12=-----14---10\9--7==|-----14---15=----12---17=----15--|-14~~~~~~~~~12\|
E|-0-0----0----0-0----0----0-0----0|-----0-0----0----------|-0-0----0----0-0----0----0-0----0|------------12\|
   PM-    PM   PM-    PM   PM-    PM     PM-    PM           PM-    PM   PM-    PM   PM-    PM

  Guitar 1
   Em                              |Song starts fading out around here                  Vib. in time to music
e|---------------------------------|-----------------------|---------------------------------|---------------|
B|---------------------------------|-----------------------|---------------------------------|---------------|
G|-----16---17=----14---16=----12--|-14=-----16---12\11-9==|-----16---17=----14---19=----17--|-16~~~~~~~~~---|
D|---------------------------------|-----------------------|---------------------------------|------------12\|
A|-----14---15=----12---14=----10--|-12=-----14---10\9--7==|-----14---15=----12---17=----15--|-14~~~~~~~~~12\|
E|-0-0----0----0-0----0----0-0----0|-----0-0----0----------|-0-0----0----0-0----0----0-0----0|------------12\|
 | PM-    PM   PM-    PM   PM-    PM     PM-    PM           PM-    PM   PM-    PM   PM-    PM
 |Guitar 2
e|---------------------------------|-----------------------|---------------------------------|---------------|
B|---------------------------------|-----------------------|---------------------------------|---------------|
G|-----16---17=----14---16=----12--|-14=-----16---12\11-9==|-----16---17=----14---19=----17--|-16~~~~~~~~~---|
D|---------------------------------|-----------------------|---------------------------------|------------12\|
A|-----14---15=----12---14=----10--|-12=-----14---10\9--7==|-----14---15=----12---17=----15--|-14~~~~~~~~~12\|
E|-0-0----0----0-0----0----0-0----0|-----0-0----0----------|-0-0----0----0-0----0----0-0----0|------------12\|
   PM-    PM   PM-    PM   PM-    PM     PM-    PM           PM-    PM   PM-    PM   PM-    PM

  Guitar 1
   Em                                                                                   Vib. in time to music
e|---------------------------------|-----------------------|---------------------------------|---------------|
B|---------------------------------|-----------------------|---------------------------------|---------------|
G|-----16---17=----14---16=----12--|-14=-----16---12\11-9==|-----16---17=----14---19=----17--|-16~~~~~~~~~---|
D|---------------------------------|-----------------------|---------------------------------|------------12\|
A|-----14---15=----12---14=----10--|-12=-----14---10\9--7==|-----14---15=----12---17=----15--|-14~~~~~~~~~12\|
E|-0-0----0----0-0----0----0-0----0|-----0-0----0----------|-0-0----0----0-0----0----0-0----0|------------12\|
 | PM-    PM   PM-    PM   PM-    PM     PM-    PM           PM-    PM   PM-    PM   PM-    PM
 |Guitar 2
e|---------------------------------|-----------------------|---------------------------------|---------------|
B|---------------------------------|-----------------------|---------------------------------|---------------|
G|-----16---17=----14---16=----12--|-14=-----16---12\11-9==|-----16---17=----14---19=----17--|-16~~~~~~~~~---|
D|---------------------------------|-----------------------|---------------------------------|------------12\|
A|-----14---15=----12---14=----10--|-12=-----14---10\9--7==|-----14---15=----12---17=----15--|-14~~~~~~~~~12\|
E|-0-0----0----0-0----0----0-0----0|-----0-0----0----------|-0-0----0----0-0----0----0-0----0|------------12\|
   PM-    PM   PM-    PM   PM-    PM     PM-    PM           PM-    PM   PM-    PM   PM-    PM

  Guitar 1
   Em                                                                                   Vib. in time to music
e|---------------------------------|-----------------------|---------------------------------|---------------|
B|---------------------------------|-----------------------|---------------------------------|---------------|
G|-----16---17=----14---16=----12--|-14=-----16---12\11-9==|-----16---17=----14---19=----17--|-16~~~~~~~~~---|
D|---------------------------------|-----------------------|---------------------------------|------------12\|
A|-----14---15=----12---14=----10--|-12=-----14---10\9--7==|-----14---15=----12---17=----15--|-14~~~~~~~~~12\|
E|-0-0----0----0-0----0----0-0----0|-----0-0----0----------|-0-0----0----0-0----0----0-0----0|------------12\|
 | PM-    PM   PM-    PM   PM-    PM     PM-    PM           PM-    PM   PM-    PM   PM-    PM
 |Guitar 2
e|---------------------------------|-----------------------|---------------------------------|---------------|
B|---------------------------------|-----------------------|---------------------------------|---------------|
G|-----16---17=----14---16=----12--|-14=-----16---12\11-9==|-----16---17=----14---19=----17--|-16~~~~~~~~~---|
D|---------------------------------|-----------------------|---------------------------------|------------12\|
A|-----14---15=----12---14=----10--|-12=-----14---10\9--7==|-----14---15=----12---17=----15--|-14~~~~~~~~~12\|
E|-0-0----0----0-0----0----0-0----0|-----0-0----0----------|-0-0----0----0-0----0----0-0----0|------------12\|
   PM-    PM   PM-    PM   PM-    PM     PM-    PM           PM-    PM   PM-    PM   PM-    PM

************************************

| x     Dead note
| h     Hammer-on
| p     Pull-off
| b     Bend up
| r     Bend release
| pb    Pre-bend
| /     Slide up
| \     Slide down
| =     Hold note
| ~     Vibrato
| PM    Palm mute
| n^(h) Natural harmonic
| v     Volume swell
| w     Whammy down
| db    Whammy dive bomb
| wr    Whammy release

************************************

            
            
Suggest correction
Creating personal tab
Creating personal tab
You can edit any tab online and save it as your Personal.

You can edit, replace or remove any tab part or add personal notes – all changes will be seen only by you.

Personal tabs can be accessed anytime from any device, even offline.
Learn more »
Give kudos to tab author, rate the tab!
1 2 3 4 5
comments
print report bad tab
1 comment total.
0 reply
Nameless_Ghoul_Aether 10 Nov 08, 2017 02:23 PM

I get a Metallica vibe from this song

guest
You may want to rate the tab now too:
select rating
Wanna post a correction for this tab? Suggest correction