Oops, an error
Loading. Please wait.

Independent tab

version 2
version 2

Whole song

Interactive

748 views 1 this week
no commentswrite comment
1 2 3 4 5
2 more votes to show rating
add to favorites
×
Save as Personal and add changes to this tab that will be seen only by you. Learn more ›
×
You can save this tab as Personal to edit and correct it or add notes. All changes will be seen only by you. Learn more »
launch autoscroll
font size
0
reset
how to read this tab
guitar tuner
edit
Autoscroll
slow
fast
+/-
esc
set tempo
stop
Independent - Sacred Reich
--------------------------

Intro

      Q    E  E  E  E  E  E     Q    E  E  E  E  E  E
D#||-------------------------|-------------------------|
A#||-------------------------|-------------------------|
F#||-------------------------|-------------------------|
C#||-------------------------|--2----------------------|
G#||--2----5--2--L--5--2--5--|--0----5--2--L--5--2--5--|
D#||--0----3--0--L--3--0--3--|-------3--0--L--3--0--3--|


Verses


  S S S S S S S S S S S S S S S S    S S S S S S S S S S S S S S S S
||----------------------------------|----------------------------------|
||----------------------------------|----------------------------------|
||----------------------------------|----------------------------------|
||----------------------------------|----------------------------------|
||----------------------------------|----------------------------------|
||--0-0-0-0-0-0-0-0-0-0-0-0-0-0-0-0-|--0-0-0-0-0-0-0-0-0-0-0-0-0-0-0-0-|


  Q    E  E  E  E  E  E     Q    E  E  E  E  E  E
-------------------------|-------------------------|
-------------------------|-------------------------|
-------------------------|-------------------------|
-------------------------|--2----------------------|
--2----5--2--L--5--2--5--|--0----5--2--L--5--2--5--|
--0----3--0--L--3--0--3--|-------3--0--L--3--0--3--|


  S S S S S S S S S S S S S S S S    S S S S S S S S S S S S S S S S
----------------------------------|----------------------------------|
----------------------------------|----------------------------------|
----------------------------------|----------------------------------|
----------------------------------|----------------------------------|
----------------------------------|----------------------------------|
--0-0-0-0-0-0-0-0-0-0-0-0-0-0-0-0-|--0-0-0-0-0-0-0-0-0-0-0-0-0-0-0-0-|


  Q    E  E  E  E  E  E     Q    E  E  E  E  E  E
-------------------------|-------------------------|
-------------------------|-------------------------|
-------------------------|-------------------------|
-------------------------|--2----------------------|
--2----5--2--L--5--2--5--|--0----5--2--L--5--2--5--|
--0----3--0--L--3--0--3--|-------3--0--L--3--0--3--|


  S S S S S S S S S S S S S S S S    S S S S S S S S S S S S S S S S
----------------------------------|----------------------------------|
----------------------------------|----------------------------------|
----------------------------------|----------------------------------|
----------------------------------|----------------------------------|
--0-0-0-0-0-0-0-0-0-0-0-0-0-0-0-0-|--0-0-0-0-0-0-0-0-0-0-0-0-0-0-0-0-|
----------------------------------|----------------------------------|


  Q    E  E  E  E  E  E     Q    E  E  E  E  E  E
-------------------------|-------------------------|
-------------------------|-------------------------|
-------------------------|-------------------------|
-------------------------|--2----------------------|
--2----5--2--L--5--2--5--|--0----5--2--L--5--2--5--|
--0----3--0--L--3--0--3--|-------3--0--L--3--0--3--|


  S S S S S S S S S S S S S S S S    S S S S S S S S S S S S S S S S
----------------------------------|----------------------------------|
----------------------------------|----------------------------------|
----------------------------------|----------------------------------|
----------------------------------|----------------------------------|
----------------------------------|----------------------------------|
--0-0-0-0-0-0-0-0-0-0-0-0-0-0-0-0-|--0-0-0-0-0-0-0-0-0-0-0-0-0-0-0-0-|


  Q    E  E  E  E  E  E     Q    E  E  E  E  E  E
-------------------------|-------------------------|
-------------------------|-------------------------|
-------------------------|-------------------------|
-------------------------|--2----------------------|
--2----5--2--L--5--2--5--|--0----5--2--L--5--2--5--|
--0----3--0--L--3--0--3--|-------3--0--L--3--0--3--|


Chorus

  W
||-------------------|
||-------------------|
||--4----------------|
||--4----------------|
||--2----------------|
||-------------------|

  H        Q    Q       Q    E  E  E  S S E  E     Q    E  E  E  S S E  E
---------------------|--------------------------|--------------------------|
---------------------|--------------------------|--------------------------|
--3------------------|--------------------------|--------------------------|
--3--------2---------|--------------------------|--------------------------|
--1--------0----5----|--2----2--2--L--2-2-2--2--|--2----2--2--L--2-2-2--2--|
----------------3----|--0----0--0--L--0-0-0--0--|--0----0--0--L--0-0-0--0--|


  W                   H        Q    Q       Q    E  E  E  S S E  E
-------------------|---------------------|--------------------------|
-------------------|---------------------|--------------------------|
--4----------------|--3------------------|--------------------------|
--4----------------|--3--------2---------|--------------------------|
--2----------------|--1--------0----5----|--2----2--2--L--2-2-2--2--|
-------------------|----------------3----|--0----0--0--L--0-0-0--0--|


  E.  E.  E  Q    Q
-----------------------|
-----------------------|
-----------------------|
-----------------------|
--2---2---2--2---------|
--0---0---0--0---------|

Solo
  E.  E.  E  Q    Q                        Q      E    E    E    E    E    E
-----------------------|-------|-------|--12-----12---12----L---12---12---12---|
-----------------------|-------|-------|--15b----15b--15b---Lb--15b--15b--15b--|
-----------------------|-------|-------|---------------------------------------|
-----------------------|-------|-------|---------------------------------------|
--2---2---2--2---------|-------|-------|---------------------------------------|
--0---0---0--0---------|-------|-------|---------------------------------------|


   Q      E    E    E    E    E    E       Q      E    E    E    E    E    E
--12-----12---12----L---12---12---12---|--12-----12---12----L---12---12---12---|
--15b----15b--15b---Lb--15b--15b--15b--|--15b----15b--15b---Lb--15b--15b--15b--|
---------------------------------------|---------------------------------------|
---------------------------------------|---------------------------------------|
---------------------------------------|---------------------------------------|
---------------------------------------|---------------------------------------|


                                     |--3--|
   H          H             Q.       S  S  S  H
--15b--------15~--------|--13b------12-------------------|
------------------------|--13b---------15-12-15b~--------|
------------------------|--------------------------------|
------------------------|--------------------------------|
------------------------|--------------------------------|
------------------------|--------------------------------|


            \1/
   |--3--|          |--3--|
   S  S  S  E   E   S  S  S  E    Q.        H         E.   E.   E
--12-------------------------------------|--------------------------|
-----15-12---------12--------------------|--------------------------|
-----------14---L-----15-12-14b----------|--2b--------2b---2b---2b--|
---------------------------------14------|--------------------------|
-----------------------------------------|--------------------------|
-----------------------------------------|--------------------------|


               \1/
  S E.   Q     H            Q     E   E   E   E   E   E
------------------------|--------------------------------|
------------------------|--------------------------------|
--L-2b---2b----0--------|--------12----------12------12--|
------------------------|--14--------14---L------14------|
------------------------|--------------------------------|
------------------------|--------------------------------|


      Q     E   E   E   E   E   E
-----------------------------------|
-----------------------------------|
--12g14----12----------12------12--|
---------------14---L------14------|
-----------------------------------|
-----------------------------------|


   |-----5-----|  |-----5-----|  |-----5-----|  |-----5-----|
   S  S  S  S  S  S  S  S  S  S  S  S  S  S  S  S  S  S  S  S
--12-15-14-12----12-15-14-12----12-15-14-12----12-15-14-12----|
--------------15-------------15-------------15-------------15-|
--------------------------------------------------------------|
--------------------------------------------------------------|
--------------------------------------------------------------|
--------------------------------------------------------------|


   |-----5-----|  |-----5-----|
   S  S  S  S  S  S  S  S  S  S  E    E    Q
--12-15-14-12----12-15-14-12----12s--20b---L----|
--------------15-------------15-----------------|
------------------------------------------------|
------------------------------------------------|
------------------------------------------------|
------------------------------------------------|


   Q     E   E   E   E   E   E         Q     E   E   E   E   E   E
--------------------------------|-----------------------------------|
--------------------------------|-------------------------------12--|
--------12----------12------12--|--12g14----12----------12----------|
--14--------14---L------14------|---------------14---L------14------|
--------------------------------|-----------------------------------|
--------------------------------|-----------------------------------|


   S  S  S  S  Q     S  S  S  S  Q
--15-12-12-12-12----------------------|
--------------------15-12-12-12-12----|
--------------------------------------|
--------------------------------------|
--------------------------------------|
--------------------------------------|


                           |--3--|  |--3--|  |--3--|
   S  S  S  S  S  S  S  S  S  S  S  S  S  S  S  S  S  E
--------------------------15-14-12-----------------------|
-----------------------12----------15-14-12--------------|
-----12-12-12-14-12-14----------------------15-14-12-----|
--14-------------------------------------------------14--|
---------------------------------------------------------|
---------------------------------------------------------|


   Q     E   E   E   E   E   E         Q     E   E   E   E   E   E
--------------------------------|-----------------------------------|
--------------------------------|-----------------------------------|
--------12----------12------12--|--12g14----12----------12------12--|
--14--------14---L------14------|---------------14---L------14------|
--------------------------------|-----------------------------------|
--------------------------------|-----------------------------------|


   |--3--|  |--3--|  |--3--|  |--3--|  |--3--|  |--3--|  |--3--|  |--3--|
   S  S  S  S  S  S  S  S  S  S  S  S  S  S  S  S  S  S  S  S  S  S  S  S
--19-17-15----15-17-19-17-15----15-17-19-17-15----15-17-19-17-15----15-17-|
-----------17----------------17----------------17----------------17-------|
--------------------------------------------------------------------------|
--------------------------------------------------------------------------|
--------------------------------------------------------------------------|
--------------------------------------------------------------------------|


   |--3--|  |--3--|  |--3--|  |--3--|
   S  S  S  S  S  S  S  S  S  S  S  S  H
--19-17-15----15-17-19-17-15----15-17-20b~--------|
-----------17----------------17-------------------|
--------------------------------------------------|
--------------------------------------------------|
--------------------------------------------------|
--------------------------------------------------|


   Q     E   E   E   E   E   E         Q     E   E   E   E   E   E
--------------------------------|-----------------------------------|
--------------------------------|-----------------------------------|
--------12----------12------12--|--12g14----12----------12------12--|
--14--------14---L------14------|---------------14---L------14------|
--------------------------------|-----------------------------------|
--------------------------------|-----------------------------------|


                                                 |--3--|
      H.             Q         H          Q      S  S  S  E
--12g15b------------15b----|-------------15-----12--------------|
---------------------------|--18b--------18b-------15-12-15brb--|
---------------------------|------------------------------------|
---------------------------|------------------------------------|
---------------------------|------------------------------------|
---------------------------|------------------------------------|


   Q      E    E    E    E    E    E       Q      E    E    E    E    E    E
---------------------------------------|---------------------------------------|
--15b----15b--15b---Lb--15b--15b--15b--|--15b----15b--15b---Lb--15b--15b--15b--|
---------------------------------------|---------------------------------------|
---------------------------------------|---------------------------------------|
---------------------------------------|---------------------------------------|
---------------------------------------|---------------------------------------|


                                                 |--3--|
      H.             Q         H          Q      S  S  S  E
--12g15b------------15b----|-------------15-----12--------------|
---------------------------|--18b--------18b-------15-12-15brb--|
---------------------------|------------------------------------|
---------------------------|------------------------------------|
---------------------------|------------------------------------|
---------------------------|------------------------------------|


   Q      E    E    E    E    E    E       E.    E.    E    H
---------------------------------------|--12----12----12---12\--------|
--15b----15b--15b---Lb--15b--15b--15b--|--15b---15b---15b--15\--------|
---------------------------------------|------------------------------|
---------------------------------------|------------------------------|
---------------------------------------|------------------------------|
---------------------------------------|------------------------------|

Duration Legend
---------------
W - whole
H - half
Q - quarter
E - 8th
S - 16th
T - 32nd
X - 64th
. - note dotted
|-n-|  - n-tuplets


Tablature Legend
----------------
L - tied note
x - dead note
g - grace note
(n) - ghost note
> - accentuded note
NH - natural harmonic
AH - artificial harmonic
TH - tapped harmonic
SH - semi harmonic
PH - pitch harmonic
h - hammer on
p - pull off
b - bend
br - bendRelease
pb - preBend
pbr - preBendRelease
brb - bendReleaseBend
\n/ - tremolo bar dip
\n - tremolo bar dive
-/n - tremolo bar Release up
/n\ - tremolo bar inverted dip
/n - tremolo bar return
-\n - tremolo bar Release down
S - shift slide
s - legato slide
/ -  slide into from below or out of upwards
\ -  slide into from above or out of downwards
~ - vibrato
W - wide vibrato
tr - trill
TP - tremolo picking
T - tapping
S - slap
P - pop
< - fade in
^ - brush up
v - brush down

            
            
Suggest correction
Creating personal tab
Creating personal tab
You can edit any tab online and save it as your Personal.

You can edit, replace or remove any tab part or add personal notes – all changes will be seen only by you.

Personal tabs can be accessed anytime from any device, even offline.
Learn more »
Give kudos to tab author, rate the tab!
1 2 3 4 5
comments
print report bad tab
guest
You may want to rate the tab now too:
select rating
Wanna post a correction for this tab? Suggest correction