Oops, an error
Loading. Please wait.

Free tab

5,351 views 6 this week
1 commentread comment
1 2 3 4 5
x 3
add to favorites
×
Save as Personal and add changes to this tab that will be seen only by you. Learn more ›
×
You can save this tab as Personal to edit and correct it or add notes. All changes will be seen only by you. Learn more »
launch autoscroll
font size
0
reset
how to read this tab
guitar tuner
edit
Autoscroll
slow
fast
+/-
esc
set tempo
stop
Author
Main Riff:

e|-------7-8---5-----------------------------------0----------5------5--5----|
B|---------------5----5--8--5----8-8-7--------7-8----0----0--------5-------8-|
G|-----------------5----------5------------------------0---------4-----------|
D|---------------------------------------------------------------------------|
A|--0------------------------------------------------------------------------|
E|---------------------------------------0-----------------------------------|


e|-------7-8---5-----------------------------------0----------5------5----------|
B|---------------5----5--8--5----8-8-7--------7-8----0----0--------5----8-0-5-8-|
G|-----------------5----------5------------------------0---------4--------------|
D|------------------------------------------------------------------------------|
A|--0---------------------------------------------------------------------------|
E|---------------------------------------0--------------------------------------|



Chorus:

e|-0-----7-8--5---------------0---------------5-5-5-------------|
B|-2-------------5--8-8-8-7---0----7-8--5--0---------8----------|
G|-0--------------------------0---------------------------------|
D|-2--------------------------0---------------------------------|
A|-0--------------------------2---------------------------------|
E|----------------------------0---------------------------------|


Interlude:


Guitar 1:

e|------------------------------------------------------------------------------------|
B|------------------------------------------------------------------------------------|
G|---------9----------9-------9--------9-----------------------4-----4------------4---|
D|-----10-----10----------------10--------10----10------5---------------5-------5---5-|
A|--12------------11------10--------9---------9------7----7--6----5--------4--7-------|
E|------------------------------------------------------------------------------------|


e|--------------------------------------------------0-----------------------------|
B|-----------------------------------------------------0--------------------------|
G|-----9------------9------9----------9-----------------------4----4----------4---|
D|-------10-----10------------10---------10-----------------5--------5----5-----5-|
A|-12--------11--------10----------9--------9---7---------6------5------4---4-----|
E|--------------------------------------------------------------------------------|



Guitar 2:

e|--10/12-12-------------------10/12--10v-12--10v-12v---12~---10-------------|
B|------------10--8-10p8\5--5-------------------------------------10b12------|
G|---------------------------------------------------------------------------|
D|---------------------------------------------------------------------------|
A|---------------------------------------------------------------------------|
E|---------------------------------------------------------------------------|


Bridge:

Guitar 1:

e|--3----2----0---0-------------3----2---0---0------------------|
B|--3----3----2-----0-----------3----3---2---0-----4------------|
G|--0----2----0-------0---------0----2---0---0-----2------------|
D|--2----5----2---------0-------2----5---2---0-----5------------|
A|--3----2----0-----------2-----3----2---0---2-----2(x5)--------|
E|--------------------------0----------------0------------------|


Guitar 2(palm mute):

e|--------------------------------------------------------------------------------------|
B|--------------------------------------------------------------------------------------|
G|--------------------------------------------------------------------------------------|
D|-----4-5------4-5-4-------4-5-----4-5-4------4-5------4-5-4---------------------------|
A|--3------3-3--------3--2------2-2-------2--0-----0-0---------0------------------------|
E|----------------------------------------------------------------0-2-3-0-0-2-3-3-2-0-3-|

            
            
Suggest correction
Creating personal tab
Creating personal tab
You can edit any tab online and save it as your Personal.

You can edit, replace or remove any tab part or add personal notes – all changes will be seen only by you.

Personal tabs can be accessed anytime from any device, even offline.
Learn more »
Give kudos to tab author, rate the tab!
1 2 3 4 5
comments
print report bad tab
1 comment total.
0 reply
fidodido 21 Apr 03, 2008 09:32 AM

Great Tab, but I think a minor change can make it easier to play:

Here's how I think the beginning of the main riff should look like:

e|-------7-8---5---------3-------3-3-2--|
B|---------------5----5-----5-----------|
G|-----------------5----------5---------|
D|--------------------------------------|
A|--0-----------------------------------|
E|--------------------------------------|

The only change is playing e-3 instead of B-8 (3 times).

Also, in the end of the main riff, you can play:

e|------5--3-----3-|
B|----5--------5---|
G|--4--------4-----|
D|-----------------|
A|-----------------|
E|-----------------|

instead of:

e|------5----------|
B|----5----8-0-5-8-|
G|--4--------------|
D|-----------------|
A|-----------------|
E|-----------------|

Just a suggestion...

guest
You may want to rate the tab now too:
select rating
Wanna post a correction for this tab? Suggest correction