Oops, an error
Loading. Please wait.

Cold Cold Man bass

649 views 9 this week
2 commentsread comments
1 2 3 4 5
x 3
add to favorites
×
Save as Personal and add changes to this tab that will be seen only by you. Learn more ›
×
You can save this tab as Personal to edit and correct it or add notes. All changes will be seen only by you. Learn more »
launch autoscroll
font size
0
reset
guitar tuner
edit
Autoscroll
slow
fast
+/-
esc
set tempo
stop
Author
Difficulty
About this tab version
Full bass tab, all riffs included. Please rate or comment. Was this info helpful? Yes No
Saint Motel - Cold Cold Man
Tuning - Standard Bass
tabbed by jjhand


[Intro]
   Bass synth and Bass guitar
G|----------------|-----------------|---------------|------------------|
D|----------------|-----------------|---------------|------------------|
A|-5--------------|-(5)-------------|-7-------------|-(7)--------5-5---|
E|----------------|-----------------|---------------|----------------5-|

G|----------------|-----------------|-----------------|-----------------|
D|----------------|-----------------|-----------------|-----------------|
A|-5---5---5------|-5---5---5-------|-7---7---7-------|-7---7---7-------|
E|------------5-7-|-5-----------5-7-|-------------5-7-|-------------5-7-|

G|----------------|-----------------|-----------------|-----------------|
D|----------------|-----------------|-----------------|-----------------|
A|-5---5---5------|-5---5---5-------|-7---7---7-------|-7---7-------5-5-|
E|------------5-7-|-------------5-7-|-------------5-7-|---------5-7-----|


[Verse]

G|-------7-7--------|-------7-7--------|-------------------|-------9---------|
D|--------------5h7-|------------------|-------7-7----7/-9-|-----------------| play 2x
A|-5----------------|-5----------------|-------------------|-7---------------|
E|------------------|---------------0--|-5-----------------|-------------5/7-|



[Prechorus]
G|---------------------|---------------------|-------------7--7-7-|----------9--9\-----|
D|---------------------|---------------------|---------7----------|--------------------|
A|--------------9--9-7-|--------------9--9-7-|--------------------|-7---7--------------|
E|-7---7---7-----------|-7---7---7-----------|-5---5--------------|--------------------|



[Chorus]

G|-7----7----7-------|------7----7-------|--------------------|--9----9-------7-7-|
D|---------------5h7-|-------------------|-----7----7----7/-9-|-------------------| play 2x
A|-------------------|-5-------------5-7-|--------------------|-----------7-------|
E|-------------------|-------------------|-5------------------|-------------------|



[Bridge]
G|-------7---------|-------7---------|-----------------|--------9-----------|
D|-------------5h7-|-----------------|-------7-----7/9-|----------------5h7-|
A|-5---------------|-5---------------|-0---------------|-7------------------|  play 2x
E|-----------------|-------------0h2-|-----------------|--------------------|

G|-----------------------|-----------------|---------------------|------------------------|
D|-----------------------|-----------------|---------------------|------------14-14-14\---|
A|----------------9--9-7-|--------------7\-|---------------5-5-4-|-7----7/----------------|
E|-7----7----7-----------|-7---------------|-5----5----5---------|------------------------|



[Chorus 2]

G|-7----7----7-------|------7----7-------|--------------------|-------9-------7-6--|
D|---------------5h7-|-------------------|-----7----7----7/9--|--------------------| play 4x
A|-------------------|-5-------------5-7-|--------------------|--7--------7--------|
E|-------------------|-------------------|-5------------------|--------------------|



[Synth Break]
 No bass, same chords (Eb, Bb, F)



[Last Chorus]
G|-7----7----7-------|------7----7-------|--------------------|--9----9-------7-7-|
D|---------------5h7-|-------------------|-----7----7----7/-9-|-------------------| play 4x
A|-------------------|-5-------------5-7-|--------------------|-----------7-------|
E|-------------------|-------------------|-5------------------|-------------------|



[Staccato Outro]
G|-----------------|-----------------|-----------------|-----------------|
D|-----------------|-----------------|-----------------|-----------------|
A|-5---5---5---5---|-5---5---5---5---|-----------------|-7---7---7---7---|
E|-----------------|-----------------|-5---5---5---5---|-----------------|

G|-----------------|-----------------|-----------------|-----------------|
D|-----------------|-----------------|-----------------|-----------------|
A|-5---5---5---5---|-5---5---5---5/--|-14--14--14--14--|-----------------|
E|-----------------|-----------------|-----------------|-12--------------|



************************************

| h   Hammer-on
| p   Pull-off
| r   Release
| b   Bend
| /   Slide up
| \   Slide down
| PM  Palm mute

************************************

            
            
Suggest correction
Creating personal tab
Creating personal tab
You can edit any tab online and save it as your Personal.

You can edit, replace or remove any tab part or add personal notes – all changes will be seen only by you.

Personal tabs can be accessed anytime from any device, even offline.
Learn more »
Give kudos to tab author, rate the tab!
1 2 3 4 5
comments
print report bad tab
2 comments total.
0 reply
Challenger440 307 May 21, 2017 04:23 PM

Entire tab is a half step sharp.

0 reply
jjhand 19,283 May 21, 2017 08:38 PM, edited on May 22 2017, 12:40 am

I got this from a youtube video but maybe my acoustic was out of tune. I'll see what I can do

guest
You may want to rate the tab now too:
select rating
Wanna post a correction for this tab? Suggest correction