Oops, an error
Loading. Please wait.

Toto tab

by Sales
886 views 9 this week
2 commentsread comments
1 2 3 4 5
2 more votes to show rating
add to favorites
×
Save as Personal and add changes to this tab that will be seen only by you. Learn more ›
×
You can save this tab as Personal to edit and correct it or add notes. All changes will be seen only by you. Learn more »
launch autoscroll
font size
0
reset
how to read this tab
guitar tuner
edit
Autoscroll
slow
fast
+/-
esc
set tempo
stop
Author
Intro
e|---------------------------------------------------|
B|---------------------------------------------------|
G|-----9----9----9----9----11----11----11----11------|
D|--10---10---10---10---12----12----12----12---------| 
A|---------------------------------------------------| x5
E|---------------------------------------------------|

Verse
e|------------------------------------------------------|
B|------------------------------------------------------|
G|------------------------------------------------------|
D|--99-------------------------99------------9-9/12-9---|
A|-----10-10-99-------------------10-10-99-10-----------| x2
E|--------------10-10-10/12-10--------------------------|

Chorus
e|------------------------|
B|------------------------|
G|------------------------|
D|--10~--9~---10~-9~--5~--|
A|--10~--9~---10~-9~--5~--|
E|---8~--7~----8~-7~--3~--|

Post Chorus
Guitar 2 
e|-------------------------------------|
B|---9---9---9---9---11--11--11--11----|
G|--10--10--10--10---12--12--12--12----|
D|-------------------------------------| x2
A|-------------------------------------|
E|-------------------------------------|

Guitar 1
e|----------------------------------------------------------------------------|
B|----------------------------------------------------------------------------|
G|----------------------------------------------------------------------------|
D|------9-------9-------9-------9--------12--------12--------12---12/14-12----| x2
A|----7---7---7---7---7---7---7---7----9----9----9----9----9----9-------------|
E|--8-------8-------8-------8-------10--------10--------10--------------------|

Guitar 2
e|---------------------------------------------------------------------------|
B|---------------------------------------------------------------------------|
G|---------------------------------------------------------------------------|
D|------9-------9-------9-------9--------12--------12--------12--------12----| x2
A|----7---7---7---7---7---7---7---7----9----9----9----9----9----9----9----9--|
E|--8-------8-------8-------8-------10--------10--------10--------10---------|

Guitar 1
e|---------------------------------------------------------|
B|---------------------------------------------------------|
G|---------------------------------------------------------|
D|--12--9--------------------------------------------------|
A|---------12--10--10-12-12--12-14-14--14-17-17--17-14-14--| x2
E|---------------------------------------------------------|


Outro
Guitar 1 
e|----------------------------------------------------------------------------|
B|----------------------------------------------------------------------------|
G|----------------------------------------------------------------------------|
D|------9-------9-------9-------9--------12--------12--------12---12/14-12----| x2
A|----7---7---7---7---7---7---7---7----9----9----9----9----9----9-------------|
E|--8-------8-------8-------8-------10--------10--------10--------------------|

It's pretty hard to denote the order, layering, and rhythm of the song, but if you listen to it
and play along, you'll get it easily! 


            
            
Suggest correction
Creating personal tab
Creating personal tab
You can edit any tab online and save it as your Personal.

You can edit, replace or remove any tab part or add personal notes – all changes will be seen only by you.

Personal tabs can be accessed anytime from any device, even offline.
Learn more »
Give kudos to tab author, rate the tab!
1 2 3 4 5
comments
print report bad tab
2 comments total.
0 reply
slaya771 148 Apr 27, 2016 06:14 PM, edited at 10:16 pm

the intro is on the D and G strings, not the G and B.

Also, the fourth chord in the chorus is 7 9 9 (just like the second chord in the chorus)

And finally, the second note in that Guitar 1 plays in the second to last section is the 9th fret of the D, not the 10th

0 reply
batkid 696 May 06, 2016 04:33 PM

thanks! i made those changes accordingly

guest
You may want to rate the tab now too:
select rating
Wanna post a correction for this tab? Suggest correction