Oops, an error
Loading. Please wait.

Ladies And Gentlemen tab

version 2
version 2

Whole song

Interactive

by Saliva
9,215 views 1 this week
5 commentsread comments
1 2 3 4 5
x 7
add to favorites
×
Save as Personal and add changes to this tab that will be seen only by you. Learn more ›
×
You can save this tab as Personal to edit and correct it or add notes. All changes will be seen only by you. Learn more »
launch autoscroll
font size
0
reset
how to read this tab
guitar tuner
edit
Autoscroll
slow
fast
+/-
esc
set tempo
stop
Author
Difficulty
-------------------------------------------------------------------------------
                             Ladies and Gentlemen - Saliva
-------------------------------------------------------------------------------
Tabbed by: Jon (jonnytom)
Email:  jtr_jthomas@yahoo.com

not sure of the solo or guitar in background of the hook. (the one that sounds similar 
Cracker's "Low")

this is my first tab, so don't bash me too hard... it's pretty damn accurate though, 
right on the money.


Tuning: 1/2 step down

INTRO
e|--------------------------------------------|
B|--------------------------------------------|
G|------------------*7------------------------|
D|---*5-*5-*5-*5-*5---------------------------|
A|--------------------*5-*5-*5-*5-*5----------|
E|--------------------------------------------|

e|----------------------------------------------|
B|--B>------------------------------------------|
G|--R>------------------------------------------|    play 4 times
D|--E>--3p2p0--5p3p0--3p2p0--5p3p0--3p2p0-------|
A|--A>--3p2p0--5p3p0--3p2p0--5p3p0--3p2p0-------|
E|--K>--3p2p0--5p3p0--3p2p0--5p3p0--3p2p0-------|


VERSE
Guitar 1
e|-----------------------------------------------|
B|-----------------------------------------------|
G|-----------------------------------------------|
D|-----------------------------------------------|   play 4 times
A|-----------------------------------------------|
E|---pm >3p2p0--5p3p0--3p2p0--5p3p0--3p2p0-------|

Guitar 2
e|---------------------------------------------|
B|---------------------------------------------|
G|-----------------*7--------------------------|
D|---*5-*5-*5-*5-*5----------------------------|    play 2 times
A|-------------------*5-*5-*5-*5-*5------------|
E|---------------------------------------------|

Guitar 1
e|------------------------------------------------|
B|------------------------------------------------|
G|------------------------------------------------|   play 4 times
D|------------------------------------------------|
A|---3p2p0--5p3p0--3p2p0--5p3p0--3p2p0------------|
E|---3p2p0--5p3p0--3p2p0--5p3p0--3p2p0------------|


HOOK (Welcome to the show)
e|-------------------------------------------------|
B|-------------------------------------------------|
G|---9s10--10-10--10-10----------------------------|
D|---9s10--10-10--10-10---3/5--5--5--3/5--5--5-----|
A|---7s8---8--8---8--8----3/5--5--5--3/5--5--5-----|
E|------------------------3/5--5--5--3/5--5--5-----|

e|------------------------------------------------|
B|------------------------------------------------|
G|---9s10--10-10--10-10---------------------------|
D|---9s10--10-10--10-10---10--10-10-10--10--------|
A|---7s8---8--8---8--8----10--10-10-10--10--------|
E|------------------------10--10-10-10--10--------|


CHORUS (do you want it?)
e|-----------------<     /-----------------------------|
B|-----------------------------------------------------------|
G|--R>------------------------------------------|   play 4 times
D|--E>--3p2p0--5p3p0--3p2p0--5p3p0--3p2p0-------|
A|--A>--3p2p0--5p3p0--3p2p0--5p3p0--3p2p0-------|
E|--K>--3p2p0--5p3p0--3p2p0--5p3p0--3p2p0-------|

Guitar 2
e|------------------------------------------------|
B|------------------------------------------------|
G|------------------------------------------------|   play 2 times
D|---10--10--10--10--10\9-9-9\7--7--7--7--7-------|
A|---m---m---m---m---m--m-m-m-m--m--m--m--m-------|
E|---10--10--10--10--10\9-9-9\7--7--7--7--7-------|

then you have the verse again, and the rest is the same, you can take it from here.
thanks for lookin over my first tab, let me know what you think.
Jonnytom

| /  slide up
| \  slide down
| h  hammer-on
| p  pull-off
| ~  vibrato
| *  harmonic
| pm palm mute
| m  mute note/string
===============================================================================

            
            
Suggest correction
Creating personal tab
Creating personal tab
You can edit any tab online and save it as your Personal.

You can edit, replace or remove any tab part or add personal notes – all changes will be seen only by you.

Personal tabs can be accessed anytime from any device, even offline.
Learn more »
comments
print report bad tab
5 comments total. Showing first comments.
0 reply
jonnytom 31 Jan 18, 2007 05:46 AM

ok, guys, i know it looks wrong... i must have pasted it wrong from the damn template, like on the chorus... and yes, i know it's supposed to be in drop D

0 reply
Iheartnirvana 668 Nov 28, 2007 01:54 PM

Other than that, this is pretty good.

0 reply
Athalon 10 Dec 23, 2007 03:06 PM

Sorry, intro harmonics are not right. The first five fifth fret harmonics and the 7th fret harmonic would be the same
note. The second set of 5th fret harmonics is correct though. However, it can be played with an artificial harmonic on
the fifth fret of the D string for the first five, then carry on as in the tab.

guest
You may want to rate the tab now too:
select rating
Wanna post a correction for this tab? Suggest correction