Oops, an error
Loading. Please wait.

Ladies And Gentlemen tab

version 4
version 4

Whole song

Interactive

by Saliva
1,676 views 1 this week
1 commentread comment
1 2 3 4 5
x 3
add to favorites
×
Save as Personal and add changes to this tab that will be seen only by you. Learn more ›
×
You can save this tab as Personal to edit and correct it or add notes. All changes will be seen only by you. Learn more »
launch autoscroll
font size
0
reset
how to read this tab
guitar tuner
edit
Autoscroll
slow
fast
+/-
esc
set tempo
stop
Author
Tabbers playing skills
intermediate +
-------------------------------------------------------------------------------------------
                               LADIES AND GENTLEMEN - Saliva
-------------------------------------------------------------------------------------------
Tabbed By: 0GibsonLesPaul0
Email----

Tuning:Drop Db
___________________________________________________________________________________________

intro - part 1 | 1x

eb|------------------------------------------|
Bb|------------------------------------------|
Gb|-[5]-[5]-[5]-[5]-[5]-[7]------------------|
Db|-------------------------[7]-[7]-[7]------|
Ab|------------------------------------------|
Db|------------------------------------------|


intro - part 2 | 4x

eb|---------------------------------|
Bb|---------------------------------|
Gb|---------------------------------|
Db|-3-0-0-5-0-0-3-0-0-5-0-0-5-3/2-0-|
Ab|-3-0-0-5-0-0-3-0-0-5-0-0-5-3/2-0-|
Db|-3-0-0-5-0-0-3-0-0-5-0-0-5-3/2-0-|


        *on second ^time^ repeating, play this*

         eb|-12/14-14--12/14-14----12/14-14--12/14-14----|
         Bb|-13/15-15--13/15-15----13/15-15--13/15-15----|
         Gb|---------------------------------------------|
         Db|---------------------------------------------|
         Ab|---------------------------------------------|
         Db|---------------------------------------------|

-------------------------------------------------------------------------------------------
verse    
     
eb|-----------------------------------------------------------------------------------|
Bb|-----------------------------------------------------------------------------------|
Gb|-[5]-[5]-[5]-[5]-[5]-[7]--------------[7]-[5]-[5]-[5]-[5]-[5]-[7]------------------|
Db|-------------------------[7]-[7]-[7]-----------------------------[7]-[7]-[7]-------|
Ab|-----------------------------------------------------------------------------------|
Db|-----------------------------------------------------------------------------------|   
  
  keep ^playing^ throughout verse
eb|---------------------------------|
Bb|---------------------------------|
Gb|---------------------------------|
Db|-3-0-0-5-0-0-3-0-0-5-0-0-5-3/2-0-|
Ab|-3-0-0-5-0-0-3-0-0-5-0-0-5-3/2-0-|
Db|-3-0-0-5-0-0-3-0-0-5-0-0-5-3/2-0-|
   P.M.----------------------------|

pre chorus

eb|---------------------------------------------------|
Bb|---------------------------------------------------|
Gb|---------------------------------------------------|
Db|-8-8-8-8-8-/-5-5-5-5-5-\-8-8-8-8-8\-10-10-10-10-10-|
Ab|-8-8-8-8-8-/-5-5-5-5-5-\-8-8-8-8-8\-10-10-10-10-10-|
Db|-8-8-8-8-8-/-5-5-5-5-5-\-8-8-8-8-8\-10-10-10-10-10-|


chorus - play 2x

eb|----------------------------------------|
Bb|----------------------------------------|
Gb|----------------------------------------|
Db|-0--3-0---0--3-0---0--3-3-0-0-5-0-0-3-2-|
Ab|-0--3-0---0--3-0---0--3-3-0-0-5-0-0-3-2-|
Db|-0--3-0---0--3-0---0--3-3-0-0-5-0-0-3-2-|


pre verse

   (guitar 1)

eb|------------------------|
Bb|------------------------|
Gb|-2-2h4p2h4p2~-5--4--2~--|
Db|------------------------|
Ab|------------------------|
Db|------------------------|
  |
  |
  |(guitar 2)
  |
eb|---------------------------------|
Bb|---------------------------------|
Gb|---------------------------------|
Db|-3-0-0-5-0-0-3-0-0-5-0-0-5-3/2-0-|
Ab|-3-0-0-5-0-0-3-0-0-5-0-0-5-3/2-0-|
Db|-3-0-0-5-0-0-3-0-0-5-0-0-5-3/2-0-|

verse    
     
eb|-----------------------------------------------------------------------------------|
Bb|-----------------------------------------------------------------------------------|
Gb|-[5]-[5]-[5]-[5]-[5]-[7]--------------[7]-[5]-[5]-[5]-[5]-[5]-[7]------------------|
Db|-------------------------[7]-[7]-[7]-----------------------------[7]-[7]-[7]-------|
Ab|-----------------------------------------------------------------------------------|
Db|---------------------------------------------------------------------------|--------|   
  |
  |
eb|---------------------------------|
Bb|---------------------------------|
Gb|---------------------------------|
Db|-3-0-0-5-0-0-3-0-0-5-0-0-5-3/2-0-|
Ab|-3-0-0-5-0-0-3-0-0-5-0-0-5-3/2-0-|
Db|-3-0-0-5-0-0-3-0-0-5-0-0-5-3/2-0-|
   P.M.----------------------------|
___________________________________{break}___________________________ 

solo

eb|---------------------------------------------------------------------------------|
Bb|-------------------------5b6-----------5b6---------------------------------------|
Gb|-5b7-7-7-7r5-5b7-7-7-7r5------7p5-5-7-5-----7p5-5-7-5---5b7-7-7-7r5-5b7-7-7-7r5-|
Db|---------------------------------7------7------7------7--------------------------|
Ab|---------------------------------------------------------------------------------|
Db|---------------------------------------------------------------------------------|

eb|------------------------------------------------------------------------|
Bb|------------------------------------------------------------------------|
Gb|-2-2h4p2h4p2~-5--4--2~--2-2h4p2h4p2~-5--4--2~--\-8-8h10p8h10p8h10p8h10p-|
Db|------------------------------------------------------------------------|
Ab|------------------------------------------------------------------------|
Db|------------------------------------------------------------------------|

pre chorus
                                       3x
eb|--------------------------------------|----------------|
Bb|o------------------------------------o|----------------|
Gb|--------------------------------------|----------------|
Db|--8-8-8-8-8-/-5-5-5-5-5-\-8-8-8-8-8\--|-10-10-10-10-10-|
Ab|o-8-8-8-8-8-/-5-5-5-5-5-\-8-8-8-8-8\-o|-10-10-10-10-10-|
Db|--8-8-8-8-8-/-5-5-5-5-5-\-8-8-8-8-8\--|-10-10-10-10-10-|

out-chorus

eb|----------------------------------------|
Bb|----------------------------------------|
Gb|----------------------------------------|
Db|-0--3-0---0--3-0---0--3-3-0-0-5-0-0-3-2-|
Ab|-0--3-0---0--3-0---0--3-3-0-0-5-0-0-3-2-|
Db|-0--3-0---0--3-0---0--3-3-0-0-5-0-0-3-2-|

eb|------------------------------------------|
Bb|------------------------------------------|
Gb|------------------------------------------|
Db|-0--3-0---0--3-0---0--3-3-0-0-5-0-0-3-2-0-|
Ab|-0--3-0---0--3-0---0--3-3-0-0-5-0-0-3-2-0-|
Db|-0--3-0---0--3-0---0--3-3-0-0-5-0-0-3-2-0-|


| [] artificial harmonic
| /  slide up
| \  slide down
| h  hammer-on
| p  pull-off
| ~  vibrato
| +  harmonic
| x  Mute note
===============================================================================

            
            
Suggest correction
Creating personal tab
Creating personal tab
You can edit any tab online and save it as your Personal.

You can edit, replace or remove any tab part or add personal notes – all changes will be seen only by you.

Personal tabs can be accessed anytime from any device, even offline.
Learn more »
Give kudos to tab author, rate the tab!
1 2 3 4 5
comments
print report bad tab
1 comment total.
0 reply
wtflolbbq 345 Feb 18, 2009 01:21 PM

bad. sorry, theres already a close to perfect tab out there, why would u retab it but worse. i liked ur solo section tho. oh, and u should clarify the beginning, artificial or natural harmonics, cuz at first i thot it meant natural and it sounded really bad

guest
You may want to rate the tab now too:
select rating
Wanna post a correction for this tab? Suggest correction