Oops, an error
Loading. Please wait.

Separated Self bass

by Saliva
416 views 1 this week
no commentswrite comment
1 2 3 4 5
3 more votes to show rating
add to favorites
×
Save as Personal and add changes to this tab that will be seen only by you. Learn more ›
×
You can save this tab as Personal to edit and correct it or add notes. All changes will be seen only by you. Learn more »
launch autoscroll
font size
0
reset
guitar tuner
edit
Autoscroll
slow
fast
+/-
esc
set tempo
stop
Author
Difficulty
Saliva - Separated self
Album: Back Into Your System

bass tab

by : doky 2007
taquilleros_de_sudamerica_maroyu_el_grupo_tropical_del_momento@hotmail.com

5-stringed bass
G D A E B

   INTRO/VERSO
G-|--------------------|
D-|--------------------|
A-|--------------------|
E-|-1/9-9-5-5-2-2/5-55-|
B-|--------------------|
                                                                              

   PRE-CORO
G-|------------------|------------------|
D-|------------------|------------------|
A-|------------------|------------------|
E-|-------------0000-|-------------5555-|
B-|-22-22-22-22------|-22-22-22-22------|
                                                                              

   CORO
G-|-----------------|-----------------|
D-|-----------------|---------2-2-----|
A-|-----------------|-----------------|
E-|-----5---2-2-----|-----5-------2---|
B-|-2-2---------3---|-2-2-------------|
                                                                              

   MIDDLE
G-|---------------|---|---------------|
D-|---------------|---|---------------|
A-|---------------|---|---------------|
E-|-555555-222222-|---|-555555-444444-|
B-|---------------|---|---------------|
                    +                                                          

Les mando congratulacioes y salutaciones a todos los que pertenecian a la 
seccion de percusion de la banda del Instituto Americano del año 2006.
no he podido ir a arreglar los tambores porque tenia muchas clases,
como tenia ganas de ir pues pero al final no se pudo.

doky2007

            
            
Suggest correction
Creating personal tab
Creating personal tab
You can edit any tab online and save it as your Personal.

You can edit, replace or remove any tab part or add personal notes – all changes will be seen only by you.

Personal tabs can be accessed anytime from any device, even offline.
Learn more »
Give kudos to tab author, rate the tab!
1 2 3 4 5
comments
print report bad tab
guest
You may want to rate the tab now too:
select rating
Wanna post a correction for this tab? Suggest correction