Oops, an error
Loading. Please wait.

Wrap It Up tab

version 1
version 1

Whole song

Interactive

232 views 6 this week
no commentswrite comment
1 2 3 4 5
3 more votes to show rating
add to favorites
×
Save as Personal and add changes to this tab that will be seen only by you. Learn more ›
×
You can save this tab as Personal to edit and correct it or add notes. All changes will be seen only by you. Learn more »
launch autoscroll
font size
0
reset
how to read this tab
guitar tuner
edit
Autoscroll
slow
fast
+/-
esc
set tempo
stop
Author
Difficulty
WRAP IT UP

As recorded by Sam & Dave
(From the 1968 Album I THANK YOU)

Words and Music by Isaac Hayes & David Porter 

Transcribed by Slowhand


Gtr I (E A D G B E) - 'Steve Cropper - Electric Guitar'
Gtr II (E A D G B E) - 'Memphis Horns - Brass'


 Intro
  Q=114
  N.C.       Ab                         Eb5
 4/4
  Gtr I (Clean El. Gtr.)
  W          W          H.       Q       Q  E E Q     E  E
|----------|----------|-4-------------|---------------------|
|----------|----------|-4-------------|---------------------|
|----------|-5--------|-5-------------|--8--x---8-----x-----|
|----------|-6--------|---------------|--8--x---8-----x-----|
|----------|-6--------|---------------|--6--x-6-6-----x-----|
|----------|-4--------|---------------|--6----6-6-------(0)-|
|
| Gtr II (Horns arr. for Gtr.)
| W          W          H     Q  E  E    H      S S E E  E
|----------|----------|---------------|---------------------|
|----------|----------|---------------|-11------9-7------7--|
|----------|----------|----------8-11-|-------------8-8-----|
|----------|----------|---------------|---------------------|
|----------|----------|---------------|---------------------|
|----------|----------|---------------|---------------------|


  Db5                     Gb5                    Ab5
   E E E  E    E E E  E    E E E E E   E E  E     E E E  E    E E E E
|-----------------------|----------------------|----------------------||
|-----------------------|----------------------|----------------------||
|--6-6-x----------------|----------------------|----------------------||
|--6-6-x-------6-6-3--6-|----------------------|----------------------||
|--4-4-x-------4-4------|--4-4-x-4-4---4-x-----|--6-6-x-------4-6-3-6-||
|--4-4---(0)------------|--2-2-x-2-2---2-x-(0)-|--4-4-x-(0)---4-------||
|
|  E E E  S  S Q   E  E    H       S S E E  E     E E E  S  S H
|-----------------------|----------------------|----------------------||
|-11-9-9-----9----------|-11-------9-7------7--|-11-9-9-----9---------||
|--------11--------8-11-|--------------8-8-----|--------11------------||
|-----------------------|----------------------|----------------------||
|-----------------------|----------------------|----------------------||
|-----------------------|----------------------|----------------------||


   1st - 3rd Verses
    $
    Eb              DbD5  Eb              DbD5
      PM--|                 PM--|
    E S S E E +E  e E E   E S S E E +E  e E E
||----------6-(6)-6-----|---------6-(6)-6-----|
||o-------8-7-(7)-7-----|-------8-7-(7)-7-----|
||------8---------------|-----8---------------|
||----8-------------6-7-|---8-------------6-7-|
||o-6---------------4-5-|-6---------------4-5-|
||--6---------------4-5-|-6---------------4-5-|


  Eb              DbD5  Eb              DbD5
    PM--|                 PM--|
  E S S E E +E  e E E   E S S E E +E  e E E
|---------6-(6)-6-----|---------6-(6)-6-----|
|-------8-7-(7)-7-----|-------8-7-(7)-7-----|
|-----8---------------|-----8---------------|
|---8-------------6-7-|---8-------------6-7-|
|-6---------------4-5-|-6---------------4-5-|
|-6---------------4-5-|-6---------------4-5-|


  Eb              DbD5  Eb              DbD5
    PM--|                 PM--|
  E S S E E +E  e E E   E S S E E +E  e E E
|---------6-(6)-6-----|---------6-(6)-6-----|
|-------8-7-(7)-7-----|-------8-7-(7)-7-----|
|-----8---------------|-----8---------------|
|---8-------------6-7-|---8-------------6-7-|
|-6---------------4-5-|-6---------------4-5-|
|-6---------------4-5-|-6---------------4-5-|


                                     To Coda
  Eb              DbD5  Eb              DbD5
    PM--|                 PM--|
  E S S E E +E  e E E   E S S E E +E  e E E
|---------6-(6)-6-----|---------6-(6)-6------||
|-------8-7-(7)-7-----|-------8-7-(7)-7------||
|-----8---------------|-----8----------------||
|---8-------------6-7-|---8-------------6-7--||
|-6---------------4-5-|-6---------------4-5--||
|-6---------------4-5-|-6---------------4-5--||


 Chorus
  Eb                Db5
  Q  E E Q  E  E    E E E  E  E E E E
|-----------------|-------------------|
|-----------------|-------------------|
|-8--x---8--x-----|-6-6-x-------------|
|-8--x---8--x-----|-6-6-x-----6-6-3-6-|
|-6--x-6-6--x-----|-4-4-x-----4-4-----|
|-6----6-6----(0)-|-4-4---(0)---------|


                     1.
  Gb5                 Ab5
  E E E E E E E  E    E E E  E  E E E E
|-------------------|---------------------||
|-------------------|--------------------o||
|-------------------|---------------------||
|-------------------|---------------------||
|-4-4-x-4-4-4-x-----|-6-6-x-----4-6-3-6--o||
|-2-2-x-2-2-2-x-(0)-|-4-4-x-(0)-4---------||


  2.
  Ab5                 Eb
  E E E  E  E E E E    Q  e E +E  E E  E
|-------------------|---------------------|
|-------------------|-----8-8-(8)---------|
|-------------------|-----8-8-(8)---------|
|-------------------|-----8-8-(8)---------|
|-6-6-x-----4-6-3-6-|---------------------|
|-4-4-x-(0)-4-------|-/6----------6-6-(0)-|


  Db                       Gb5
  E. S e S S +S  S E E e   E E E E E E E  E
|------------------------|--------------------|
|----6-6-----------------|--------------------|
|-6--6-6-6-6-(6)-6-6-----|--------------------|
|-6--6-6-6-6-(6)-6-6-3-6-|--------------------|
|-4------4-4-(4)-4-4-----|-4-4-x-4-4-4-x------|
|------------------------|-2-2-x-2-2-2-x-(0)--|


  Ab5               N.C.
  E E E E E E E E    Q.    E      +E   Q   E
|-----------------|-11-----------------------|
|-----------------|--------------------------|
|-----------------|-------13pb15r(13)-11-----|
|-----------------|-----------------------13-|
|-6-6-x-6-6-6-x---|--------------------------|
|-4-4-x-4-4-4-x---|--------------------------|


   +E   Q   E  +Q   Q    S E S E S S +S  E. E E
|----------------------|-------------------------|
|----------------------|-------------------------|
|----------11-(11)-----|-------------------------|
|-(13)-11--------------|-------------------------|
|----------------------|-6-6-6-6-6-6-(6)---------|
|----------------------|-----------------3--4-6--|


                            Bridge
                             Cm
  S E S E S S +S  E. E E      E  E E S S +E  S S E E
|------------------------||--------------------------|
|------------------------||o-------------------------|
|------------------------||---8--8-8-8-8-(8)-8---8-8-|
|------------------------||--10-10-9-9-9-(9)---8-9-9-|
|-6-6-6-6-6-6-(6)--------||o-------------------------|
|-----------------3--4-6-||--------------------------|


   E  E E S S +E  S S E E  3x
|--------------------------||
|-------------------------o||
|--8--8-8-8-8-(8)-8---8-8--||
|-10-10-9-9-9-(9)---8-9-9--||
|-------------------------o||
|--------------------------||


                                           Out-Chorus
                            D.S. al Coda &
                            Bb5     DbD5    Eb5
   E  E E S S +E  S S E E   H.      E E     Q  E E Q  E  E
|-------------------------|--------------||-----------------|
|-------------------------|--------------||-----------------|
|--8--8-8-8-8-(8)-8---8-8-|---------6-7--||-8--x---8--x-----|
|-10-10-9-9-9-(9)---8-9-9-|---------6-7--||-8--x---8--x-----|
|-------------------------|-8-------4-5--||-6--x-6-6--x-----|
|-------------------------|-6------------||-6----6-6----(0)-|


  Db5                 Gb5                 Ab5                 Eb5
  E E E  E  E E E E   E E E E E E E  E    E E E  E  E E E E   Q  E E Q  E  E
|-------------------|-------------------|-------------------|------------------|
|-------------------|-------------------|-------------------|------------------|
|-6-6-x-------------|-------------------|-------------------|-8--x---8--x------|
|-6-6-x-----6-6-3-6-|-------------------|-------------------|-8--x---8--x------|
|-4-4-x-----4-4-----|-4-4-x-4-4-4-x-----|-6-6-x-----4-6-3-6-|-6--x-6-6--x------|
|-4-4---(0)---------|-2-2-x-2-2-2-x-(0)-|-4-4-x-(0)-4-------|-6----6-6----(0)--|


  Db5                 Gb5                 Ab
  E E E  E  E E E E   E E E E E E E  E    H.      e E   W
|-------------------|-------------------|-4-------4---|-4----|
|-------------------|-------------------|-4-------4---|-4----|
|-6-6-x-------------|-------------------|-5-------5---|-5----|
|-6-6-x-----6-6-3-6-|-------------------|-6-------6---|-6----|
|-4-4-x-----4-4-----|-4-4-x-4-4-4-x-----|-------------|------|
|-4-4---(0)---------|-2-2-x-2-2-2-x-(0)-|-------------|------|


  Eb5               Db5                 Gb5                 Ab5
  Q  E E Q  E  E    E E E  E  E E E E   E E E E E E E  E    E E E  E  E E E E
|-----------------|-------------------|-------------------|--------------------|
|-----------------|-------------------|-------------------|--------------------|
|-8--x---8--x-----|-6-6-x-------------|-------------------|--------------------|
|-8--x---8--x-----|-6-6-x-----6-6-3-6-|-------------------|--------------------|
|-6--x-6-6--x-----|-4-4-x-----4-4-----|-4-4-x-4-4-4-x-----|-6-6-x-----4-6-3-6--|
|-6----6-6----(0)-|-4-4---(0)---------|-2-2-x-2-2-2-x-(0)-|-4-4-x-(0)-4--------|


  Eb5               Db5                 Gb5
  Q  E E Q  E  E    E E E  E  E E E E   E E E E E E E  E
|-----------------|-------------------|-------------------*|
|-----------------|-------------------|-------------------*|
|-8--x---8--x-----|-6-6-x-------------|-------------------*|
|-8--x---8--x-----|-6-6-x-----6-6-3-6-|-------------------*|
|-6--x-6-6--x-----|-4-4-x-----4-4-----|-4-4-x-4-4-4-x-----*|
|-6----6-6----(0)-|-4-4---(0)---------|-2-2-x-2-2-2-x-(0)-*|


Duration Legend
---------------
W - whole; H - half; Q - quarter; E - 8th; S - 16th; T - 32nd; X - 64th; a - acciaccatura
+ - note tied to previous; . - note dotted; .. - note double dotted
Uncapitalized letters represent notes that are staccato (1/2 duration)
Irregular groupings are notated above the duration line
Duration letters will always appear directly above the note/fret number it represents the
duration for.  Duration letters with no fret number below them represent rests.  Multi-
bar rests are notated in the form Wxn, where n is the number of bars to rest for.  Low
melody durations appear below the staff

Tablature Legend
----------------
 h   - hammer-on
 p   - pull-off
 b   - bend
 pb  - pre-bend
 r   - bend release (if no number after the r, then release immediately)
 /\  - slide into or out of (from/to "nowhere")
 s   - legato slide
 S   - shift slide
  - natural harmonic
[n]  - artificial harmonic
n(n) - tapped harmonic
 ~   - vibrato
 tr  - trill
 T   - tap
 TP  - trem. picking
 PM  - palm muting
\n/  - tremolo bar dip; n = amount to dip
 \n  - tremolo bar down
 n/  - tremolo bar up
/n\  - tremolo bar inverted dip
 =   - hold bend; also acts as connecting device for hammers/pulls
 <>  - volume swell (louder/softer)
 x   - on rhythm slash represents muted slash
 o   - on rhythm slash represents single note slash

Misc Legend
-----------
 |  - bar
||  - double bar
||o - repeat start
o|| - repeat end
*|  - double bar (ending)
 :  - bar (freetime)
 $  - Segno
 &  - Coda
Tempo markers -  = BPM(8/16=s8/s16), where s8 = swing 8ths, s16 = swing 16ths



I've been watching you for days, now baby
I just love your sexy ways, now baby
You know my love will never stop, now baby
Just put your loving in my box, now baby

Wrap it up, I'll take it
Wrap it up, I'll take it

Well, no more will I shop around, now baby
I know I got the best thing in town, now baby
I've seen all I want to see, now baby
Bring your loving straight to me, now baby

Wrap it up, I'll take it
Wrap it up, I'll take it
Wrap it up, I'll take it, oowee
Wrap it up, I'll take it
Good God almighty, come on

Well, I'm gonna treat you like the queen you are
Bring you sweet things from my candy jar
You've got tricks you ain't never used
Give it, give it to me, it won't get abused

I've been watching you for days, baby
I just love your sexy ways, baby
You know my love will never stop, baby
Just put your loving in my box, ooo baby

Wrap it up, I'll take it
Wrap it up, I'll take it
Wrap it up, I'll take it
Wrap it up, I'll take it

Wrap, wrap
Wrap, wrap, wrap
Wrap it up, I'll take it
Wrap it up, I'll take it
Wrap it up, I'll take it
Wrap it up, I'll take it
Wrap it up, I'll take it
Wrap it up, I'll take it
Wrap it up, I'll take it

            
            
Suggest correction
Creating personal tab
Creating personal tab
You can edit any tab online and save it as your Personal.

You can edit, replace or remove any tab part or add personal notes – all changes will be seen only by you.

Personal tabs can be accessed anytime from any device, even offline.
Learn more »
Give kudos to tab author, rate the tab!
1 2 3 4 5
comments
print report bad tab
guest
You may want to rate the tab now too:
select rating
Wanna post a correction for this tab? Suggest correction