Oops, an error
Loading. Please wait.

Awkward bass

version 1
version 1

Whole song

10,113 views 15 this week
1 commentread comment
1 2 3 4 5
x 15
add to favorites
×
Save as Personal and add changes to this tab that will be seen only by you. Learn more ›
×
You can save this tab as Personal to edit and correct it or add notes. All changes will be seen only by you. Learn more »
launch autoscroll
font size
0
reset
guitar tuner
edit
Autoscroll
slow
fast
+/-
esc
set tempo
stop
Difficulty
Tabbed By :TSUT90
e-mail:toddsutton@live.com

Tuning:Standard

G|---------------------------------------------------------------------------|
D|----4--44--4--4--44----------------4--44--4--4--44-------------------------|
A|---------------------------------------------------------------------------|
E|-------------------------2----------------------------2--------------------|

G|---------------------------------------------------------------------------|
D|-------------------------7----------------------------7--------------------|
A|---------------------------------------------------------------------------|
E|----5--55--5--5--55----------------5--55--5--5--55-------------------------|

Pretty much repeat for the whole song. This is my first tab so hopefully it's right. Any 
problems let me know. Cheers!


| /  slide up
| \  slide down
| h  hammer-on
| p  pull-off
| ~  vibrato
| +  harmonic
| x  Mute note
===============================================================================

            
            
Suggest correction
Creating personal tab
Creating personal tab
You can edit any tab online and save it as your Personal.

You can edit, replace or remove any tab part or add personal notes – all changes will be seen only by you.

Personal tabs can be accessed anytime from any device, even offline.
Learn more »
comments
print report bad tab
1 comment total.
0 reply
jon.maca 10 Feb 11, 2012 02:30 PM

I love you forever.

guest
Wanna post a correction for this tab? Suggest correction