Oops, an error
Loading. Please wait.

Just The Way You Are tab

version 1
version 1

Whole song

Interactive

2,442 views 3 this week
no commentswrite comment
1 2 3 4 5
3 more votes to show rating
add to favorites
×
Save as Personal and add changes to this tab that will be seen only by you. Learn more ›
×
You can save this tab as Personal to edit and correct it or add notes. All changes will be seen only by you. Learn more »
launch autoscroll
font size
0
reset
how to read this tab
guitar tuner
edit
Autoscroll
slow
fast
+/-
esc
set tempo
stop
Title: Just The Way You Are

Artist: Sandra Bae

Arranged by: Sandra Bae

Tabbed by: Ryan R. Gonzales

Location: Rosario, Batangas - Philippines

Tuning: Open D - D A F# D A D (Capo on 3rd fret)


         [Intro]
         NH      NH    NH    NH    NH    NH      
         Q       E     E     E     E     E   E   
D ||--<>12----<>12------------------------------|
A ||----------------<>12--------<>12------------|
F#||----------------------------------------13--|
D ||--<>12----<>12--------<>12--------<>12------|
A ||--------------------------------------------|
D ||--------------------------------------------|


     NH      NH    NH    NH               NH      NH    NH       NH         
     Q       E     E     Q     Q          Q       E     E  E     E  E   E   
------------------------------------|--<>12----<>12------------------------|
------------------------------------|----------------<>12-----<>12---------|
--<>12------13--<>12----10----13----|----------------------------------13--|
--<>12----<>12--------<>12----12----|-----9-------9--------9--------9------|
------------------------------------|--------------------------------------|
------------------------------------|--------------------------------------|


     NH          NH                   NH      NH    NH        NH          
     Q     E     E   Q     Q          Q       E     E   E     E   E   E   
--------------------------------|--<>12----<>12--------------------------|
--------------------------------|----------------<>12------<>12----------|
--<>12----13--<>12--10----13----|------------------------------------13--|
-----9-----9---------9-----9----|----------------------------------------|
--------------------------------|----10------10--------10--------10------|
--------------------------------|----------------------------------------|


                                    NH      NH    NH       NH         
   E   E   E   E   Q     Q          Q       E     E  E     E  E   E   
-------------------0----------|--<>12----<>12------------------------|
------------------------------|----------------<>12-----<>12---------|
------13------12--------10----|----------------------------------13--|
------------------------------|-----0-------0--------0--------0------|
--10------10------10----10----|--------------------------------------|
------------------------------|--------------------------------------|


                                   [Verse]
                             NH                                       
  E   E  E   E   E  E  E     E     E      E   E   S S E  E   E   S S  
--------------------------------|------------------------------------|
--------------------------------|---------0---0-------0--0-------0---|
-----13-----12~--L--------------|------------(0)--0---------(0)----0-|
--0------0-------0--0--0--------|------------(0)------------(0)------|
--------------------------<>12--|-------------x--------------x-------|
--------------------------------|--0----------------0----------------|


  E  S E   S  S S S S  E   E   E     E  E   E   S S E  E   E   S S  
----------------------------------|--------------------------------|
--0----0---0----0---0h-2----------|-----0---0-------0--0-------0---|
-----0----(0)-0-----------(0)--0--|--------(0)--0---------(0)----0-|
----------(0)-------------(0)-----|--------(0)------------(0)------|
-----------x---------------x------|--2------x-----2--------x-------|
--0---------------0---------------|--------------------------------|


  E  S E   S  S S S S  E   E   E     E  E   S  E  S S S  E   E   S S  
----------------------------------|----------------------------------|
--0----0---0----0---0h-2----------|----------------------------------|
-----0----(0)-0-----------(0)--0--|-----0---0h-1--0---0h-1---0-------|
----------(0)-------------(0)-----|--------(0)----0---0-----(0)----0-|
--2--------x------2--------x------|---------x----------------x-------|
----------------------------------|--5--------------5------------5---|


                                                          NH           
  E  E   E   S  S S E  S  E   E     E  S  S  E   E  E     E   E    E   
---------------------------------|------------------------------------|
---------------------------------|---------------------<>12-----------|
---------0---1p-0-1-0--1-(0)--0--|----------(0)--------------(0)--13--|
-----0--(0)--0----0----0-(0)--0--|-----3s-4-(4)--4-----------(0)------|
---------x----------------x------|-----------x----------------x-------|
--5------------------------------|--0---------------0-----------------|


                                 NH                                   
  E   E   E    E   E  E   E      E     E  E   E   S S E  E   E   S S  
------------------------------------|--------------------------------|
------------------------------------|-----0---0-------0--0-------0---|
-----13--(0)--12~--L-----(0)--------|--------(0)--0---------(0)----0-|
---------(0)-------------(0)--------|--------(0)------------(0)------|
----------x---------------x---<>12--|---------x--------------x-------|
--0----------------0--0-------------|--0------------0----------------|


  E  S E   S  S S S S  E   E   E     E  E   E   S S E  E   E   S S  
----------------------------------|--------------------------------|
--0----0---0----0---0h-2----------|-----0---0-------0--0-------0---|
-----0----(0)-0-----------(0)--0--|--------(0)--0---------(0)----0-|
----------(0)-------------(0)-----|--------(0)------------(0)------|
-----------x---------------x------|--2------x-----2--------x-------|
--0---------------0---------------|--------------------------------|


  E  S E   S  S S S S  E   E   E     E  E   S  E  S S E   E   E  S  
----------------------------------|--------------------------------|
--0----0---0----0---0h-2----------|--------------------------------|
-----0----(0)-0-----------(0)--0--|-----0---0h-1--0---1---0---1--0-|
----------(0)-------------(0)-----|--------(0)----0---0--(0)--0--0-|
--2--------x------2--------x------|---------x-------------x--------|
----------------------------------|--5--------------5--------------|


                                          ^         v   ^     NH 
  S S  E  E   E   E  Q     E      S  Q    E  E  E   E   E     S  
-------------------------------|--------------------------------|
-------------------------------|----------0---------0---0-------|
--L-1s-3-----(0)----------(0)--|----------0---------0---0--<>12-|
--L-0-----0--(0)--0--2-----4---|--3s-4----4---------4---4--<>12-|
--------------x------------x---|----------0--------(0)--0--<>12-|
----5-------------5------------|-----0----0--0--0-------------x-|


            [Chorus]
                                               ^    ^  v  ^  v  ^    ^    ^  v  
  E  S  E   E       E  E  E   E   S     E  E   E    S  S  S  S  E    E    S  S  
-----------------------0--2-------4~-|--L--L-----------------------------------|
------------0-------0----------------|--------(0)--(0)---(0)---(0)--(0)--(0)---|
--L----(0)-------------------(0)-----|---------0----0--0--0--0--0----0----0--0-|
--L----(0)-------------------(0)-----|---------0----0--0--0--0--0----0----0--0-|
--L-----x---------------------x------|---------x----0--0--0--0--0----x----0--0-|
-------------------------------------|--0--0-----------------------------------|


         ^    ^  v                                                
  E  E   E    S  S E  E   E   E     E  E   E   E  E  E    E   E   
-------------------0--2-------4--|-----2-------0-----0h---2---0--|
--------(0)--(0)---0--0-------0--|-----0-------0-----0--------0--|
---------0----0--0-------(0)-----|--------(0)------------(0)-----|
---------0----0--0-------(0)-----|--------(0)------------(0)-----|
---------x----0--0--------x------|--2------x------2-------x------|
--0--0-------------0-------------|-------------------------------|


                                              ^  v  v             
  E  E   E   E  E  E    E   E     E  E   E    S  E  S E   E   E   
----------------0--0h---2---4--|-----2------------------------5--|
-------------0--0--0--------0--|-----0--(0)--(0)---------(0)--0--|
--------(0)------------(0)--5--|-----5--(5)---0----------(5)--5--|
--------(0)------------(0)-----|--------(0)---0--0--0----(0)-----|
--2--2---x--------------x------|---------x----0--0--0-----x------|
----------------------------5--|--5--------------5--5-5-------5--|


                                              NH       NH           
  E  E   E   E  E  S  S  E   E     Q    E     E  E     E   E    E   
--L--4-------0-----0h-2------0--|----------------------------------|
--L--0--(0)--0-----0----(0)--0--|----------<>12-----<>12-----------|
--L--5--(5)--5-----5----(5)--0--|-------0-----------------(0)--13--|
--------(0)-------------(0)-----|-------------------------(0)------|
---------x---------------x------|--------------------------x-------|
--L----------5--5---------------|--0-------------0-----------------|


                                           ^    ^  v  ^  v  ^    ^    ^  v  
  E   E    E   E  E  E   E   E      E  E   E    S  S  S  S  E    E    S  S  
-----------0------0--2-------4~--|--L--L-----------------------------------|
----------(0)--0-----------------|--------(0)--(0)---(0)---(0)--(0)--(0)---|
-----12--(12)-----------(0)------|---------0----0--0--0--0--0----0----0--0-|
------------------------(0)------|---------0----0--0--0--0--0----0----0--0-|
-----------x-------------x-------|---------x----0--0--0--0--0----x----0--0-|
--0------------------------------|--0--0-----------------------------------|


         ^    ^  v                                                
  E  E   E    S  S E  E   E   E     E  E   E   E  E  E    E   E   
-------------------0--2-------4--|-----2-------0-----0h---2---0--|
--------(0)--(0)---0--0-------0--|-----0-------0-----0--------0--|
---------0----0--0-------(0)-----|--------(0)------------(0)-----|
---------0----0--0-------(0)-----|--------(0)------------(0)-----|
---------x----0--0--------x------|--2------x------2-------x------|
--0--0-------------0-------------|-------------------------------|


                                              ^  v  v             
  E  E   E   E  E  E    E   E     E  E   E    S  E  S E   E   E   
----------------0--0h---2---4--|-----2------------------------5--|
-------------0--0--0--------0--|-----0--(0)--(0)---------(0)--0--|
--------(0)------------(0)--5--|-----5--(5)---0----------(5)--5--|
--------(0)------------(0)-----|--------(0)---0--0--0----(0)-----|
--2--2---x--------------x------|---------x----0--0--0-----x------|
----------------------------5--|--5--------------5--5-5-------5--|


                                   [Interlude]
                                                    NH    NH       NH           
  E  E   E   E  E  S  S  E   E     E          E     E     E  E     E   E    E   
--L--4-------0-----0h-2------0--|----------------<>12--------------------------|
--L--0--(0)--0-----0----(0)--0--|----------------------<>12-----<>12-----------|
--L--5--(5)--5-----5----(5)--0--|-------------0-----------------------(0)--13--|
--------(0)-------------(0)-----|-------------------------------------(0)------|
---------x---------------x------|--------------------------------------x-------|
--L----------5--5---------------|--0-------------------------0-----------------|


                                  [Verse]

  E   E   E   S  E  S  E  Q       E      E   E   S S E  E   E   S S  
-------------------------------|------------------------------------|
--------------8s-9--8s-9--9----|---------0---0-------0--0-------0---|
-----12--(0)--7s-8--7s-8--8----|------------(0)--0---------(0)----0-|
---------(0)--0-----0-----x----|------------(0)------------(0)------|
----------x--------------------|-------------x--------------x-------|
--0----------------------------|--0----------------0----------------|


  E  S E   S  S S S S  E   E   E     E  E   E   S S E  E   E   S S  
----------------------------------|--------------------------------|
--0----0---0----0---0h-2----------|-----0---0-------0--0-------0---|
-----0----(0)-0-----------(0)--0--|--------(0)--0---------(0)----0-|
----------(0)-------------(0)-----|--------(0)------------(0)------|
-----------x---------------x------|--2------x-----2--------x-------|
--0---------------0---------------|--------------------------------|


  E  S E   S  S S S S  E   E   E     E  E   S  E  S S S  E   E   S S  
----------------------------------|----------------------------------|
--0----0---0----0---0h-2----------|----------------------------------|
-----0----(0)-0-----------(0)--0--|-----0---0h-1--0---0h-1---0-------|
----------(0)-------------(0)-----|--------(0)----0---0-----(0)----0-|
--2--------x------2--------x------|---------x----------------x-------|
----------------------------------|--5--------------5------------5---|


                                          ^       ^    ^      
  E  E   E   S S S E  S  E   E     S S  S S  Q    Q    E  E   
-----------------------------0--|----------------------------|
---------------0---0-----0---5--|----------------------0-----|
--------(0)--5---5----5-(5)--5--|---------0------------0-----|
-----0--(0)-------------(0)-----|----3s-4-3s-4----4----4-----|
---------x---------------x------|---------0-------0----0-----|
--5--------------5--------------|--0--------------0----0--0--|


                                 [Bridge]
      v   ^        v                                                         
  E   E   E  E  E  E   E   E     E        E    E    E    E    E    E    E    
-------------------0-------0--|--0------------------------------------------|
------0---0--------0-------0--|--0--------4----4----2----2------------------|
------0---0--------0--(0)-----|----------(0)--(0)--(0)--(0)---3----3----1---|
------4---4-----------(0)-----|-----------2---(2)------------(0)--(0)--(0)--|
-----(0)--x------------x------|----------------x--------------4----x----2---|
--0----------0--0-------------|--0------------------0----0------------------|


   E    E    E   E  E  E   E    E    
--------------------------------0---|
-------------------------------(0)--|
---0----1----3------------(0)-------|
--(0)--(0)--(0)--0-----0--(0)-------|
---0----2----x-------------x--------|
--------------------0---------------|


   E    E    E    S  S  E    E    E    E       E    E    S  S E  E  E   E   E   
---0---------------------------------------|-----------------------------------|
--(0)---4----4----2s-3--2----0----0--------|----------------------------0---0--|
-------(0)--(0)--(0)---(0)--(0)--(0)---1---|---0----1----1s-3----------(0)-----|
--------2---(2)------------------(0)--(0)--|--(0)--(0)--(0)---0-----0--(0)-----|
---2---------x----2-----2----2----x----2---|---2----2----x-------2------x------|
-------------------------------------------|-----------------------------------|


  E  E   S  E  S E  E   E   E     E  E  S  E   E  E  S S  E.   
-------------------------------|-----------0---2-----0-5s-7---|
---------0-----0--------0------|--0--0--2---------------------|
-----0--(0)-0-------0--(0)--0--|----------(0)-----------------|
--------(0)------------(0)-----|----------(0)-----------------|
---------x--------------x------|-----------x------------------|
--5--------------5-------------|------------------5-----------|


                                             [Chorus]

  S  E.   E   S  S E   E   E  S  S    E  S S E       E  E  E   E   S  S  
--3s-4----L---2p-0---------2--2s-4-|--------------------0--2-------2s-4-|
---------(0)----------(0)----------|---------0-------0--0--0-------0--0-|
---------(0)----------(0)----------|--------------------0--1--(0)--1s-3-|
---------(0)----------(0)----------|--------------------------(0)-------|
----------x------------x-----------|---------------------------x--------|
--0----------------0---------------|--0--0------------------------------|


        ^  ^ v ^ v ^  ^  ^ v           ^    ^  v                
  E  E  E  S S S S E  E  S S    E  E   E    S  S E  E   E   E   
--L--L-----------------------|-------------------0--2-------4--|
--L--L--0--0---0---0--0--0---|--------(0)--(0)---0--0-------0--|
--L--L--3--3-3-3-3-3--3--3-3-|---------0----0--0-------(0)-----|
--------0--0-0-0-0-0--0--0-0-|---------0----0--0-------(0)-----|
--------x--0-0-0-0-0--x--0-0-|---------x----0--0--------x------|
--0--0-----------------------|--0--0-------------0-------------|


  E  E   E   E  E  E    E   E     E  E   E   E  E  E    E   E   
-----2-------0-----0h---2---0--|----------------0--0h---2---4--|
-----0-------0-----0--------0--|-------------0--0--0--------0--|
--------(0)------------(0)-----|--------(0)------------(0)--5--|
--------(0)------------(0)-----|--------(0)------------(0)-----|
--2------x------2-------x------|--2--2---x--------------x------|
-------------------------------|----------------------------5--|


              ^  v  v                                              
  E  E   E    S  E  S E   E   E     E  E   E   E  E  S  S  E   E   
-----2------------------------5--|--L--4-------0-----0h-2------0--|
-----0--(0)--(0)---------(0)--0--|--L--0--(0)--0-----0----(0)--0--|
-----5--(5)---0----------(5)--5--|--L--5--(5)--5-----5----(5)--0--|
--------(0)---0--0--0----(0)-----|--------(0)-------------(0)-----|
---------x----0--0--0-----x------|---------x---------------x------|
--5--------------5--5-5-------5--|--L----------5--5---------------|


             NH       NH                                             
  Q    E     E  E     E   E    E     E   E    E   E  E  E   E   E    
----------------------------------|------------------0--2-------4~--|
----------<>12-----<>12-----------|---------------0-------------0---|
-------0-----------------(0)--13--|-----12--(12)-----------(0)------|
-------------------------(0)------|----------(0)-----------(0)------|
--------------------------x-------|-----------x-------------x-------|
--0-------------0-----------------|--0------------------------------|


         ^    ^  v  ^  v  ^    ^    ^  v           ^    ^  v                
  E  E   E    S  S  S  S  E    E    S  S    E  E   E    S  S E  E   E   E   
--L--L-----------------------------------|-------------------0--2-------4--|
--L--L--(0)--(0)---(0)---(0)--(0)--(0)---|--------(0)--(0)---0--0-------0--|
---------0----0--0--0--0--0----0----0--0-|---------0----0--0-------(0)-----|
---------0----0--0--0--0--0----0----0--0-|---------0----0--0-------(0)-----|
---------x----0--0--0--0--0----x----0--0-|---------x----0--0--------x------|
--0--0-----------------------------------|--0--0----------------0----------|


  E  E   E   E  E  E    E   E     E  E   E   E  E  E    E   E   
-----2-------0-----0h---2---0--|----------------0--0h---2---4--|
-----0-------0-----0--------0--|-------------0--0--0--------0--|
--------(0)------------(0)-----|--------(0)------------(0)--5--|
--------(0)------------(0)-----|--------(0)------------(0)-----|
--2------x------2-------x------|--2--2---x--------------x------|
-------------------------------|----------------------------5--|


              ^  v  v                                              
  E  E   E    S  E  S E   E   E     E  E   E   E  E  S  S  E   E   
-----2------------------------5--|--L--4-------0-----0h-2------0--|
-----0--(0)--(0)---------(0)--0--|--L--0--(0)--0-----0----(0)--0--|
-----5--(5)---0----------(5)--5--|--L--5--(5)--5-----5----(5)--0--|
--------(0)---0--0--0----(0)-----|--------(0)-------------(0)-----|
---------x----0--0--0-----x------|---------x---------------x------|
--5--------------5--5-5-------5--|--L----------5--5---------------|


         ^    ^  v  ^  v  ^    ^    ^  v    PM PM    NH   NH PM    NH PM   NH  
  E  E   E    S  S  S  S  E    E    S  S    E  E     E    E  E     E  E    E   
-----------------------------------------|--------<>12----------<>12-----<>7--|
--------(0)--(0)---(0)---(0)--(0)--(0)---|--------------<>7-------------------|
---------0----0--0--0--0--0----0----0--0-|-----0------------------------------|
---------0----0--0--0--0--0----0----0--0-|------------------------------------|
---------x----0--0--0--0--0----x----0--0-|------------------------------------|
--0--0-----------------------------------|--0--0-----0----0--0-----0--0----0--|


  PM PM PM PM PM PM PM PM PM PM PM    PM    NH   NH PM    NH PM   NH     
  E  E  E  S  S  S  S  E  E  S  S     E     E    E  E     E  E    E  E   
-----------------------------------|-----<>12----------<>12-----<>7-----|
-----------------------------------|-----------<>7----------------------|
-----------------------------------|------------------------------------|
-----------------------------------|------------------------------------|
-----------------------------------|---------------------------------2--|
--0--0--0--0--0--0--0--0--0--0--0--|--0-----0----0--0-----0--0----0-----|


            NH               v                                     
  E   E     E  E  E   E   S  S  E     E   E   E  E  E  E   E   E   
-----------------------------------|----------------0--2-------4--|
-----------------------------------|----------0--0-------------0--|
-----(0)--<>5--------(0)----(0)----|-----(0)--------------(0)--5--|
-----(0)-------------(0)----(0)----|-----(0)--------------(0)-----|
--2---x-----2--2--2---x---2-----2--|--2---x------2---------x------|
-----------------------------------|---------------------------5--|


              ^  v  v                                              
  E  E   E    S  E  S E   E   E     E  E   E   E  E  S  S  E   E   
--L--2------------------------5--|--L--4-------0-----0h-2------0--|
--L--0--(0)--(0)---------(0)--0--|--L--0--(0)--0-----0----(0)--0--|
--L--5--(5)---0----------(5)--5--|--L--5--(5)--5-----5----(5)--0--|
--------(0)---0--0--0----(0)-----|--------(0)-------------(0)-----|
---------x----0--0--0-----x------|---------x---------------x------|
--L--------------5--5-5-------5--|--L----------5--5---------------|


           NH    NH       NH                                          
  E  E     E     E  E     E   E    E     E   E    E.   E  E  E.   E   
--------<>12--------------------------|-------------------0--7s---4--|
--------------<>12-----<>12-----------|----------------0-------------|
-----0-----------------------(0)--13--|-----12s--(7)-----------------|
-----------------------------(0)------|----------(0)-----------------|
------------------------------x-------|-----------x------------------|
--0-----------------0-----------------|--0---------------------------|


  E  E  E  S E  S E  E  E     E  E  E  E  E  E   E   E   
--4------------------------|--------------0--2-------4--|
-------------0-------------|-----------0-----0-------0--|
--------0---------0--------|--------0-----------(0)-----|
-----0-----0----0----0-----|-----0--------------(0)-----|
------------------------0--|---------------------x------|
--0------------------------|--0-------------------------|


  E  E   E   E  E  E    E   E     E  E   E   E  E  E  E  E   
-----2-------0-----0h---2---0--|----------------0--0--2--4--|
-----0-------0-----0--------0--|-------------0--0--0-----0--|
--------(0)------------(0)-----|--------(0)--------------5--|
--------(0)------------(0)-----|--------(0)-----------------|
--2------x------2-------x------|--2--2---x------------------|
-------------------------------|-------------------------5--|


  E  E   E   S E  S E  E  E     E  E   E   E  E  S  S  E   E   
-----2--------------------5--|-----4-------0-----0h-2------0--|
-----0--(0)-------0-------0--|-----0--(0)--0-----0----(0)--0--|
-----5--(5)----5----5-----5--|-----5--(5)--5--5--5----(5)--0--|
--------(0)--0---------0-----|--------(0)-------------(0)-----|
---------x-------------------|---------x---------------x------|
--5--------------------------|--5-----------------------------|


             NH       NH                                            
  Q    E     E  E     E   E    E     E   E    E   E  E  E   E   E   
----------------------------------|------------------0--2-------4--|
----------<>12-----<>12-----------|---------------0--0--0-------0--|
-------0-----------------(0)--13--|-----12--(12)--0--0--1--(1)--3--|
-------------------------(0)------|----------(0)-----------(0)-----|
--------------------------x-------|-----------x-------------x------|
--0-------------0-----------------|--0-----------------------------|


  S  E  E  E  S E  E  E  E     E  E  E  E  E  E   E   E   
--3s-4--L-------------------|--------------0--2-------4--|
--0--0--L--0----0-----------|--------------0--0-------0--|
--2s-3--L----------0-----0--|-----------0--0--1--(0)--0--|
--------0-----0-------0-----|--0-----0-----------(0)-----|
----------------------------|---------------------x------|
--0-------------------------|-----0----------------------|


  E  E   E   E  E  E  S  S E     E  E  E  E  E  E    E   E   
-----2-------5-----4--0h-2-0--|--------------0--0h---2---4--|
-----0-------0-----0--0--0-0--|-----------0--0--0--------0--|
-----0--(0)--0-----0--0h-1-0--|--------0------------(0)--5--|
--------(0)-------------------|-----0---------------(0)-----|
--2------x------2-------------|--2-------------------x------|
------------------------------|--------------------------5--|


              ^  v  v                                              
  E  E   E    S  E  S E   E   E     E  E   E   E  E  S  S  E   E   
-----2------------------------5--|--L--4-------0-----0h-2------0--|
-----0--(0)--(0)---------(0)--0--|--L--0--(0)--0-----0----(0)--0--|
-----5--(5)---0----------(5)--5--|--L--5--(5)--5-----5----(5)--0--|
--------(0)---0--0--0----(0)-----|--------(0)-------------(0)-----|
---------x----0--0--0-----x------|---------x---------------x------|
--5--------------5--5-5-------5--|--L----------5--5---------------|


  [Outro]
               NH    NH       NH                                              
  E      E     E     E  E     E   E    E     E   E   E   S  E  S  E.   S  E   
------------<>12--------------------------|--------------3s-4--3s-4s---2s-0--|
------------------<>12-----<>12-----------|--------------0--0--0--0----0s-0--|
---------0-----------------------(0)--13--|-----12--(0)--2s-3--2s-3s---1s-0--|
---------------------------------(0)------|---------(0)----------------------|
----------------------------------x-------|----------x-----------------------|
--0---------------------0-----------------|--0-------------------------------|


  W                  
--L----------------||
--L----------------||
--L----------------||
-------------------||
-------------------||
-------------------||



Duration Legend
---------------
W - whole
H - half
Q - quarter
E - 8th
S - 16th
T - 32nd
X - 64th
. - note dotted
|-n-|  - n-tuplets


Tablature Legend
----------------
L   - tied note
x   - dead note
g   - grace note
(n) - ghost note
NH  - natural harmonic
h   - hammer on
p   - pull off
s   - legato slide
~   - vibrato
^   - brush up
v   - brush down
PM  - palm mute



echo "Hello World!";

Play until your fingers bleed!

            
            
Suggest correction
Creating personal tab
Creating personal tab
You can edit any tab online and save it as your Personal.

You can edit, replace or remove any tab part or add personal notes – all changes will be seen only by you.

Personal tabs can be accessed anytime from any device, even offline.
Learn more »
Give kudos to tab author, rate the tab!
1 2 3 4 5
comments
print report bad tab
guest
You may want to rate the tab now too:
select rating
Wanna post a correction for this tab? Suggest correction