Oops, an error
Loading. Please wait.
We have an official Black Magic Woman tab made by UG professional guitarists. Check out the tab »
×

Black Magic Woman bass

by Santana
100,315 views 192 this week
no commentswrite comment
1 2 3 4 5
x 29
add to favorites
×
Save as Personal and add changes to this tab that will be seen only by you. Learn more ›
×
You can save this tab as Personal to edit and correct it or add notes. All changes will be seen only by you. Learn more »
launch autoscroll
font size
0
reset
guitar tuner
edit
Autoscroll
slow
fast
+/-
esc
set tempo
stop
Author
Difficulty
intermediate
Black magic woman - Santana

Alot of the bass is fun little improvs on the regular line. I threw in
some of the more noticable ones (or how i interpreted them), but at
any time feel free to refer back to the regular line to make your own.

Thanks to Achilles for the motivation and basic template.

                   
G|---------|-------------------|----------------------------------------------|
D|---------|:--7/3------------:|---7/3--------5-5-------5-5--5/7--------------|
A|-0-5-----|:-----5---0-5-5---:|------5--5---5-----5---5--------5--0-5-5--0-5-|
E|---------|-------------------|----------3---------3-------------------------|(x4)

G|-----------------------------------------------|
D|---------------5-5-------5-5--5/7--------------|
A|--0-5-5--5----5----5----5--------5-5----0-5----|
E|----------3---------3--------------------------|


G|-----5-5-7-5----5-5-7-5--------------------------5-5-7-5----5-5-7-5-------------------------|
D|----7----------7-----------5-5-7-5----5-5-7-5---7----------7-----------3-3-5-3----3-3-5-3---|
A|-5----------5-------------7----------7-------5----------5-------------5----------5----------|
E|-----------------------5----------5--------------------------------3----------3-------------|

G|-------5-5-7-5---------------5-5-7-5----5-5-0-------|
D|------7-----------5-5-7-5---7----------7-----3h5p30-|
A|---5-------------7-------5----------5---------------|
E|--------------5-------------------------------------|

             
G|------5-5-7-5--|-------------|
D|:----7--------:|-------------|
A|:-5-----------:|--end on-5---|
E|---------------|-------------|(x7)


G|-----5-5-7-5----5-5-7-5--------------------------5-5-7-5----5-5-----------------------------|
D|----7----------7-----------5-5-7-5----5-5-7-5---7----------7---7-6-5----3-3-5-3----3-3-5-3--|
A|-5----------5-------------7----------7-------5----------5------------3h5----------5---------|
E|-----------------------5----------5--------------------------------------------3------------|

G|-------5-5-7-5---------------5-5-7-5--------------|
D|------7-----------5-5-7-5---7---------------------|
A|---5-------------7-------5----------5-------------|
E|--------------5-----------------------------------|


G|-----5-5-7-5----5-5---------------------------------------5-5-7-5-----5---------------------------|
D|----7----------7----------------5-5-7-5----5-----5-------7----------7----------3-3-5-3----3-3-5-3-|
A|-5----------5------------------7----------7-------7-6-5----------5----------3h5----------5--------|
E|-------------------7-6-5---------------5--------------------------------4-3-----------3-----------|

G|-------5-5-7-5--------------------5-5-7-5----------------------|
D|------7-----------5-5------7-5---7-----------------------------|
A|---5-------------7------------5----------bass-drum-------------|
E|--------------5------------------------------------------------|


GUITAR SOLO START, REGULAR FIRST TIME,
SECOND TIME DOODLE BASED ON GUITAR SOLO

G|----------5-5----7---5--------------------5----5---7--5-------------------------------------------------5--|
D|----7--------------------------------7-----------------------5--5-7----5----5---------5----7-5-----7-------|
A|-5--------------------5-----------------------------------7----------------7------------------5------------|
E|-------------------------------------------------------5----------------5----------------------------------|

G|----5-7---5----5-5------7-5----------------------------------------------|
D|--------------7-----------------3----------3--5-3----3-3-5-3-------------|
A|-----------5-------------------5--------------------5--------------------|
E|---------------------------3---------------------3-----------------------|

G|------------5-5----7---5---------------------------------------5--5-7----5---------------|-----------------|
D|------7-------------------------------------5----5---7--5---7------------------:|--------------------------|
A|---5-----------------------------------7-----------------5----------------5----:|--------------------------|
E|------------------------5----------------------------------------------------------------|-----------------|


G|----------5-5----7---5--------------------5----5---7--5-------------------------------------------------5--|
D|---7-----7--------------------------7----7-------------------5--5-7----5----5---------5----7-5-----7-------|
A|-5--------------------5-----------------------------------7----------------7------------------5------------|
E|-------------------------------------------------------5----------------5----------------------------------|

G|---5-7---5----5-5-------------------------------------------------------|
D|-------------7------------------3---3-5-3--------------------3--3-5--3--|
A|----------5------------------3h5--------------------5-------------------|
E|-----------------5-4-3---------------------------3----------------------|

G|------------5-5----7---5---------------------------------------5--5-7----5>>-------------------------------|
D|------7-------------------------------------5----5---7--5---7------------->>--NEXT PART--------------------|
A|---5-----------------------------------7-----------------5----------------------------- --|>---IMMEDIATELY-|
E|------------------------5------------------------------------------------->>-------------------------------|

                           
G|<<------------------|-------------------------------------------------------||
D|<<------------------|:-----------------7/3---------------------------------:||
A|<<5---0--5-----5|:--------------------------------5--------0--5-5----------:||
E|<<------------------|-------------------------------------------------------||(x3)

G|------------7-5-------------------------------------------------------------------------------------------|
D|-------------------7--5-----------------------------------------------------------------------------------|
A|-----------------------8----7h8p7-5-3-5---------------5-----------5-------------5------5-----------5-----5|
E|------------------------------------------------5-----------5----5----------------5---5--------------5----|


An almighty THIRTY SEVEN TIMES! (x8)                               

G|---|---------------------------------------------|---------------------------------------------------------|
D|---|:-------------------------------------------:|---------------------------------------------------------|
A|---|:5-------0--------3------------5-0---------7:|--3---2----0-5--------3----2---0-5----3---2--------0-5---|
E|---|---------------------------------------------|---------------------------------------------------------|

G|--------------------------------------|
D|:------------------------------------:|
A|:5--------------0-3--------5-0------7:|
E|--------------------------------------|

G|---------------------------------------------------------------------|
D|---------------------------------------------------------------------|
A|--3--2------0-~----~---~~end on this---------------------------------|
E|---------------------------------------------------------------------|



************************************

| h  Hammer-on
| p  Pull-off
| >  Accented note
| /  Slide up
| ~  Vibrato

************************************

            
            
Suggest correction
Creating personal tab
Creating personal tab
You can edit any tab online and save it as your Personal.

You can edit, replace or remove any tab part or add personal notes – all changes will be seen only by you.

Personal tabs can be accessed anytime from any device, even offline.
Learn more »
comments
print report bad tab
guest
You may want to rate the tab now too:
select rating
Wanna post a correction for this tab? Suggest correction