Oops, an error
Loading. Please wait.

Into The Night tab

version 1
version 1
148,579 views 3 this week
18 commentsread comments
1 2 3 4 5
x 31
add to favorites
×
Save as Personal and add changes to this tab that will be seen only by you. Learn more ›
×
You can save this tab as Personal to edit and correct it or add notes. All changes will be seen only by you. Learn more »
launch autoscroll
font size
0
reset
how to read this tab
guitar tuner
edit
Autoscroll
slow
fast
+/-
esc
set tempo
stop
Author
Into the Night tab
Carlos Santana feat Chad Kroger
standard tuning

[Intro]
(Chad)

Chords
 Am     C       G       D       Am      C       G       D
 0      0       3       2       0       0       3       2
 1      1       3       3       1       1       3       3
 2      0       0       2       2       0       0       2
 2      2       0               2       2       0
 0      3       2               0       3       2
 0      0       3               0       0       3

*Santana plays after each chord is struck
Santana
Am           C         G       D       Am      C     G     D
E|-----------|---------|----3-5-5|5------|---------------------------|
B|---1-0-----|--1-3-5-3|--5------|--3-1-1|----1s3s5h8-8-3-3-3-1-0----|
G|-2-----2-0-|---------|---------|-------|---2---------------------2-|
D|-----------|---------|---------|-------|-2-------------------------|
A|-----------|---------|---------|-------|---------------------------|
E|-----------|---------|---------|-------|---------------------------|


[Verse 1]
(Chad)

Am                         C
Like a gift from the heavens, it was easy to tell,
G                       D
It was love from above, that could save me from hell,
Am                        C
She had fire in her soul it was easy to see,
G                       D
how the devil himself could be pulled out of me,
Am                          C
There were drums in the air as she started to dance,
G                        D
Every soul in the room keeping time with there hands,

(Santana)
(comes in at “there were…”)
e|--------------------------------------------|
B|--0-1-0-------------------5-8-10-10-5-3-1-1-|
G|--------2-0----5-7-9-7----------------------|
D|--------------------------------------------|
A|--------------------------------------------|
E|--------------------------------------------|

And we sang…

(Chad)

[Chorus]
Am       C
Ay oh ay oh ay oh ay,
G                  D
And the voices bang like the angels sing,

We’re singing…
Am         C
Ay oh ay oh ay oh ay,
G                  D
And we danced on into the night,
Am
Ay oh ay oh,
C
Ay oh ay oh,
G                  D
And we danced on into the night,

(Santana)

[Chorus]
e|--------0h3--5-----------------------|
B|------1--------3-3-3-----------------|
G|----2-----------------5-7-7-5-4-2-0--|
D|--2----------------------------------|
A|-------------------------------------|
E|-------------------------------------|

[Verse 2]
(same chords as verse one)
Like a piece to the puzzle that falls into place,
You could tell how we felt from the look on our faces,
we was spinning in circles with the moon in our eyes,
The room left them moving between you and I,
We forgot where we were and we lost track of time,
And we sang to the wind as we danced through the night,
And we sang…

(Chad)

[Chorus]
Am       C
Ay oh ay oh ay oh ay,
G                  D
And the voices bang like the angels sing,

We’re singing…
Am         C
Ay oh ay oh ay oh ay,
G                  D
And we danced on into the night,
Am
Ay oh ay oh,
C
Ay oh ay oh,
G                  D
And we danced on into the night,

(Santana)

[Chorus] x2
e|--------0h3--5-----------------------|
B|------1--------3-3-3-----------------|
G|----2-----------------5-7-7-5-4-2-0--|
D|--2----------------------------------|
A|-------------------------------------|
E|-------------------------------------|

Santana

[Solo]
e|-------------------------------------------------------|
B|--10-10-10-10--10-8------------------------------------|
G|--------------------9-7-5-4-2--------------------------|
D|----------------------------------2-0-2----------------|
A|--------------------------------0-------3-5-5-3-2-2-0--|
E|-------------------------------------------------------|

                                v ^ v ^
e|----10-8-7-5--12-10-8-8-7-5---8-8-8-8-10----------8-5--|
B|-10--------------------------------------10--10-8------|
G|-------------------------------------------------------|
D|-------------------------------------------------------|
A|-------------------------------------------------------|
E|-------------------------------------------------------|

e|-12-10-8-8-7-5----10(b)-8-7-5--12-10(b)-8-7-5-8-8-8-10-|
B|-------------------------------------------------------|
G|-------------------------------------------------------|
D|-------------------------------------------------------|
A|-------------------------------------------------------|
E|-------------------------------------------------------|

        (Two 10(b) : Full bend till the next note)

e|-5-5-5-5-5--3-0-------------------8-8-10-5-5-3-5s21----|
B|----------------5-3-1-0--------------------------------|
G|------------------------5-5----------------------------|
D|----------------------------7p5-7----------------------|
A|-------------------------------------------------------|
E|-------------------------------------------------------|

[Bridge]

(Chad)
Am      C       G       D       Am      C       G       D
0       0       3       2       0       0       3       2
1       1       3       3       1       1       3       3
2       0       0       2       2       0       0       2
2       2       0               2       2       0
0       3       2               0       3       2
0       0       3               0       0       3

[Chorus]
(repeat until end)



************************************

| h  Hammer-on
| p  Pull-off
| s  Slide 

************************************

            
            
Suggest correction
Creating personal tab
Creating personal tab
You can edit any tab online and save it as your Personal.

You can edit, replace or remove any tab part or add personal notes – all changes will be seen only by you.

Personal tabs can be accessed anytime from any device, even offline.
Learn more »
comments
print report bad tab
18 comments total. Showing first comments.
-1 reply
ossilramakiir 10 Nov 29, 2007 05:56 AM

Pretty good tab. Might be missing some hammer-ons and your lyrics are a little off for the timing of the chords, but
it's the best I've found so far. 4*

-2 reply
ossilramakiir 10 Nov 29, 2007 06:09 AM

Actually...I just gave it a second listen, and your intro is off. It's quite a ways down the neck. There's no way your
intro could have the same tone as Santana's

0 reply
jcrocker 170 Nov 29, 2007 12:57 PM

dude you just copied the solo from xeeshan86 tab

guest
You may want to rate the tab now too:
select rating
Wanna post a correction for this tab? Suggest correction