Oops, an error
Loading. Please wait.

Into The Night tab

version 2
version 2
30,078 views 21 this week
11 commentsread comments
1 2 3 4 5
x 10
add to favorites
×
Save as Personal and add changes to this tab that will be seen only by you. Learn more ›
×
You can save this tab as Personal to edit and correct it or add notes. All changes will be seen only by you. Learn more »
launch autoscroll
font size
0
reset
how to read this tab
guitar tuner
edit
Autoscroll
slow
fast
+/-
esc
set tempo
stop
Author
Difficulty
-------------------------------------------------------------------------------
                             Into the Night - Santana
-------------------------------------------------------------------------------
Tabbed by:t0ulee619
Email:sharigan_owns_u@hotmail.com

Tuning: Standard

Aright this is my first tab. The other tabs of this song didnt sound exact or complete 
i made my own. This is pretty much Santana's part.

Chords used through out song:
   Am       C       G       D
e|  0       0       3       2
B|  1       1       3       3
G|  2       0       0       2
D|  2       2       0       0
A|  0       3       2
E|                  3

Intro
e|-----------------------------3-5-5-3----5-------------------------5-------10-10-8-7-------|
B|--1-1-0----------1-3/5--3---5------------3-1-1-------0-1-3/5/8-----3-3-3-----------10-10\-|
G|--------2-0-----------------------------------------2-------------------------------------|
D|---------------------------------------------------2--------------------------------------|
A|------------------------------------------------------------------------------------------|
E|------------------------------------------------------------------------------------------|

Verse 1
e|--------------------------8-5---------------5\---|
B|------3/5--3-1-------5-8-8-----------5-8-8-8-----|
G|--------------2----------------------------------|
D|-------------------------------------------------|
A|-------------------------------------------------|
E|-------------------------------------------------|

Chorus 1
e|--------------------------3-3-3—5\-------------------------------------12-12--10-8-7------|
B|---10-10-13-13-10/-----3/5---------10-10-13-13-10-13--10-10-13-13-10-13-------------10-10/|
G|------------------------------------------------------------------------------------------|
D|------------------------------------------------------------------------------------------|
A|------------------------------------------------------------------------------------------|
E|------------------------------------------------------------------------------------------|

Verse 2
e|----------------------------------------------17------------------------------------------|
B|--3/5-3-1-3-3-1------------20-19-17---17--17----19--17-17---------------------------------|
G|---------------2--------------------19--19---------------19-19-17-17-19---17--------------|
D|----------------------------------------------------------------------------19--17-17-19\-|
A|------------------------------------------------------------------------------------------|
E|------------------------------------------------------------------------------------------|

Chorus 2
e|---------------------------------------------------------------------------------------12-12-|
B|-10-10-13-13-13-13-10\----20-20-----------17-17\----10-10-13-13-10-13--10-10-13-13-10-13-----|
G|-------------------------------19-17-17-19---------------------------------------------------|
D|---------------------------------------------------------------------------------------------|
A|---------------------------------------------------------------------------------------------|
E|---------------------------------------------------------------------------------------------|

e|-----10-10--8-7------------8-8--8----------8-8-8-10------10-10-8-7----|
B|---------------10-10--10-10---10-----10-10---------10-------------10\-|
G|----------------------------------------------------------------------|
D|----------------------------------------------------------------------|
A|----------------------------------------------------------------------|
E|----------------------------------------------------------------------|

Solo (Wah pedal used)
e|----------------------------------------------------------10-8---------12-10-8------------|
B|-10-10-10-10--10-8---------------5---------------------10-----10-10------------10-8-10----|
G|-------------------9-7-5----------7-5-5-7-------------------------------------------------|
D|-------------------------9-7-7-------7------7-5-------------------------------------------|
A|------------------------------------------------7-5---------------------------------------|
E|----------------------------------------------------8-5-----------------------------------|

e|-8-8-8-8-10----8-----------12-10-8-------------22-20------22(b)-22-20---------------------|
B|-----------10---10-8-10-8---------10-8-10------------22-22-----------22-20-22-------------|
G|------------------------------------------------------------------------------------------|
D|------------------------------------------------------------------------------------------|
A|------------------------------------------------------------------------------------------|
E|------------------------------------------------------------------------------------------|

e|-20-20-20-20-22---------------------------------------------------------------------------|
B|----------------22-22-22-22--22-20-------------22-22-20-19-20-19--19----------------------|
G|-----------------------------------21-19------------------------21--21-19-21-19----19-----|
D|-----------------------------------------22-19----------------------------------22---22---|
A|------------------------------------------------------------------------------------------|
E|------------------------------------------------------------------------------------------|

e|---------8-8-8-8-10------------3---5/21-----------|
B|--------------------10-10-10----------------------|
G|--------------------------------------------------|
D|-19-22----------------------------------11\-------|
A|----------------------------------------11\-------|
E|-----------------------------------------9\-------|

Bridge
e|-------------------------------------------------------------|
B|--------8(b)-----------------20-19---------------------------|
G|-----------------------------------21-19-21-19-21-19-21\-----|
D|-------------------------------------------------------------|
A|-------------------------------------------------------------|
E|-------------------------------------------------------------|

Chorus 3
e|----------------------------------------------------------------------------------------|
B|-10-10-13-13-10\---17-20-20-17-20-20-17-20-20-----------10-10-13-13-10-13---10-10-13-13-|
G|-----------------------------------------------19-17/-----------------------------------|
D|----------------------------------------------------------------------------------------|
A|----------------------------------------------------------------------------------------|
E|----------------------------------------------------------------------------------------|

e|-----12-12---10-10--8-7--------8-8-----8--------8-8-8-10--17-20-17-20-17-20-22--20-17/--|
B|-10-13--------------------10-10---10-10----10-10--------10------------------------------|
G|----------------------------------------------------------------------------------------|
D|----------------------------------------------------------------------------------------|
A|----------------------------------------------------------------------------------------|
E|----------------------------------------------------------------------------------------|


Outro
e|-10-10-8-7------------|
B|-----------10-10\-----|
G|----------------------|
D|----------------------|
A|----------------------|
E|----------------------|   ...yea

            
            
Suggest correction
Creating personal tab
Creating personal tab
You can edit any tab online and save it as your Personal.

You can edit, replace or remove any tab part or add personal notes – all changes will be seen only by you.

Personal tabs can be accessed anytime from any device, even offline.
Learn more »
comments
print report bad tab
11 comments total. Showing first comments.
-1 reply
a7x4lifeman 61 Mar 31, 2008 06:55 AM

dude perfect tab in my opinion

-1 reply
t0ulee619 51 Apr 04, 2008 07:25 PM

attention everyone "into the night" ver. 5 copied almost all of my tab but i made this up myself

-1 reply
cozzy99coz 10 Apr 08, 2008 07:12 PM

dude, this is an amazing tab, i followed alon with the song, it sounds great

guest
You may want to rate the tab now too:
select rating
Wanna post a correction for this tab? Suggest correction