Oops, an error
Loading. Please wait.
We have Chord Pro version of Smooth.
It's the closest thing you can get to the original song and it has interactive parts. Check out the tab »
×
by Santana
58,037 views 63 this week
2 commentsread comments
1 2 3 4 5
x 12
add to favorites
×
Save as Personal and add changes to this tab that will be seen only by you. Learn more ›
×
You can save this tab as Personal to edit and correct it or add notes. All changes will be seen only by you. Learn more »
launch autoscroll
font size
0
reset
how to read this tab
guitar tuner
edit
Autoscroll
slow
fast
+/-
esc
set tempo
stop
Author
Artist: Santana & Rob Thomas
Song: Smooth
Album: Supernatural


[Intro]

e|-----------------------------|
B|-----------------------------|
G|-------12----12h14-----------|
D|-12h14----14-----------------|
A|-----------------------------|
E|-----------------------------|

e|------------------------------------|
B|-------12-12br-----12-13------------|
G|-13-14----------14-------14---------|
D|------------------------------------|
A|------------------------------------|
E|------------------------------------|

Man...
Like...
I...
...cool

e|----------------------------------------------------|
B|-------------------12h13p12-15-13-12-------12-------|
G|-------------------------------------14-13----13-14-|
D|--------------12h14---------------------------------|
A|---------12h15--------------------------------------|
E|-12--15---------------------------------------------|

 ...Mona Lisa
e|----------------|
B|-15^-15^-15--17-|
G|----------------|
D|----------------|
A|----------------|
E|----------------|

 ...groove
e|----12--15p12--12----------12------|
B|-15^---------15--15--13-15----15^--|
G|-----------------------------------|
D|-----------------------------------|
A|-----------------------------------|
E|-----------------------------------|

And...
I would...
...mood

e|-----------------------------|
B|-----------------12-13p12----|
G|--------------14----------14-|
D|-12////-14-15----------------|
A|-----------------------------|
E|-----------------------------|

 ...so smooth
e|----12----12-15p12--12--------------------------------|
B|-15^---15^--------15 -13--15p13-15p13-15p13-15p13-----|
G|---------------------------------------------------14-|
D|------------------------------------------------------|
A|------------------------------------------------------|
E|------------------------------------------------------|

 And...
 Well...
 You...
 Gimme...
 ...about it
e|----------------------------------------------------|
B|-----------------12-12br----12-13--------------15^--|
G|-/14-------13-14----------14-----14-----------------|
D|----------------------------------------------------|
A|----------------------------------------------------|
E|----------------------------------------------------|

e|-------------------|
B|------15^r13-------|
G|-------------14----|
D|-------------------|
A|-------------------|
E|-------------------|

 ...shame
e|--------|
B|--------|
G|--------|
D|-/14-12-|
A|--------|
E|--------|

 In...
 ...me out
e|------------------------------------------------------|
B|-------------------12-13-12--13p12--------------------|
G|-------------12-14-----------------14-14-13-14-13-14--|
D|-12h14-12h14------------------------------------------|
A|------------------------------------------------------|
E|------------------------------------------------------|

 Out...
 You...
 ...and round
e|----12--15p12--12----------12------|
B|-15^---------15--15--13-15----15^--|
G|-----------------------------------|
D|-----------------------------------|
A|-----------------------------------|
E|-----------------------------------|

 And if...
 I would...
 ...your mood
e|-------------------------------------|
B|--------------12-13---15-13-15-13-15-|
G|-----------14------------------------|
D|-12-14-15----------------------------|
A|-------------------------------------|
E|-------------------------------------|

 ...so smooth
e|----12----12-15p12--12----------------------------|
B|-15^---15^--------15--15--15p13-15p13-15p13-15p13-|
G|--------------------------------------------------|
D|--------------------------------------------------|
A|--------------------------------------------------|
E|--------------------------------------------------|

e|-----------------------------------------------------------|
B|-------------------------------12------------------12--13--|
G|----------14-----------------------------------14----------|
D|-----------------------------------------------------------|
A|-----------------------------------------------------------|
E|-----------------------------------------------------------|
 .........just.................under............well........

e|-----------------------------------------------|
B|----------------------15-----------------------|
G|-----------------------------------------------|
D|-----------------------------------------------|
A|-----------------------------------------------|
E|-----------------------------------------------|
 ....................get.......................

e|---12h13p12------12-----------------------5\-------------|
B|-----------15p13----13-15-13-15-15-13-----6\-------------|
G|------------------------------------------5\-------------|
D|------------------------------------------7\-------------|
A|------------------------------------------5\-------------|
E|---------------------------------------------------------|
..kinda.lovin.............................gimme...........


e|-5---------7\--------------------------|
B|-6---------9\--------------------------|
G|-5---------7\--------------------------|
D|-7---------9\--------------------------|
A|-5---------7\--------------------------|
E|---------------------------------------|
make......real.......................


[Solo]

e|---------------------------------------------------------|
B|-----------------12br---------------------------12-13-12-|
G|-14-------13--14------14-------16p14p13------13----------|
D|------------------------------------------14-------------|
A|---------------------------------------------------------|
E|---------------------------------------------------------|

e|-----------------------------------------------------------|
B|----------12------12-12h13-12----13p12---------------------|
G|-14----------13---------------13-------14------------------|
D|--------------------------------------------/14-/14-12-14--|
A|-----------------------------------------------------------|
E|-----------------------------------------------------------|


e|-15^-15^-15^r-12----12----19br-17---12h15p12------|
B|-----------------15-------------------------15-17-|
G|--------------------------------------------------|
D|--------------------------------------------------|
A|--------------------------------------------------|
E|--------------------------------------------------|


e|------------------17-19-20-19-20-19-20-19-20-19-20-19-20-19-|
B|-13-15h17p15----17------------------------------------------|
G|------------------------------------------------------------|
D|------------------------------------------------------------|
A|------------------------------------------------------------|
E|------------------------------------------------------------|


e|-20-19-20^--////20p17---17------------17--------------|
B|---------------------20^------20^-20^----20p17--17----|
G|----------------------------------------------19--19^-|
D|------------------------------------------------------|
A|------------------------------------------------------|
E|------------------------------------------------------|


e|---17----------------------------------------------------------|
B|-17--20p17-------------------------5-5-5-5-5-5-6-6-6-6-7-7-7-7-|
G|----------19^r17--17-19\---------------------------------------|
D|----------------19---------------------------------------------|
A|---------------------------------------------------------------|
E|---------------------------------------------------------------|


e|----------------------------------------------|
B|-8-8-8-8-9-9-9-9-10-10-10-10-11-11-11-11-12---|
G|----------------------------------------------|
D|----------------------------------------------|
A|----------------------------------------------|
E|----------------------------------------------|


[Repeat Chorus]

[Outro]

e|------------------------------------------------------------|
B|-----------------12-12br----12-13----------15^--------------|
G|-/14-------13-14----------14------14----------------/14-----|
D|------------------------------------------------------------|
A|------------------------------------------------------------|
E|------------------------------------------------------------|

e|------------------------12-------------------------------|
B|-------12-12br----12-13---13-12h13p12--------------------|
G|-13-14----------14--------------------14p12h14-----------|
D|---------------------------------------------------------|
A|---------------------------------------------------------|
E|---------------------------------------------------------|

e|------------------------------------------------------------|
B|-17-17-17-17-17-17----15------17-17-17-17-17-17----17-------|
G|-17-17-17-17-17-17-16---------17-17-17-17-17-17-16----------|
D|------------------------------------------------------------|
A|------------------------------------------------------------|
E|------------------------------------------------------------|

e|-12----12-15--12h15p12--12-------------17---17---17-|
B|----15^---------------15--15^-------15^--15^--15^---|
G|----------------------------------------------------|
D|----------------------------------------------------|
A|----------------------------------------------------|
E|----------------------------------------------------|

e|----17----17----17----17--19-19-19-19^r--17-17-|
B|-15^---17----17----17--------------------------|
G|-----------------------------------------------|
D|-----------------------------------------------|
A|-----------------------------------------------|
E|-----------------------------------------------|

e|-----17----17---17-----19-19-20^20^--19p17-----|
B|--20^---20^ 20^--------------------------------|
G|-----------------------------------------------|
D|-----------------------------------------------|
A|-----------------------------------------------|
E|-----------------------------------------------|

e|-15-12h15p12--12--------------------------------------------|
B|------------15---17p13--13-15^15-13--15-13-15-13-15-13-15\--|
G|----------------------14------------------------------------|
D|------------------------------------------------------------|
A|------------------------------------------------------------|
E|------------------------------------------------------------|

e|------------------------------------------------------------|
B|-13-----------------------12-13-12-15-12--------------------|
G|---14-14---------------14-----------------14----------------|
D|-------------14-12--14-------------------------15-14-12h14--|
A|------------------------------------------------------------|
E|------------------------------------------------------------|

e|----------------------------------12-12------------20p19p17-|
B|-------------------------12-13-15---------------17----------|
G|--------------------12-14--h--h-----------------------------|
D|------12-14-15-14-15--h-------------------------------------|
A|-12-15--h--h--p--h------------------------------------------|
E|---h--------------------------------------------------------|

e|-20p19p17-20p19p17-20p19p17-20p19p17-20p19p17-20p19p17-20p19p17-|
B|----------------------------------------------------------------|
G|----------------------------------------------------------------|
D|----------------------------------------------------------------|
A|----------------------------------------------------------------|
E|----------------------------------------------------------------|

e|-20p19p17-20p19p17-20p19p17-20p19p17-20p19p17-22--22p20p19-22p20p19-|
B|--------------------------------------------------------------------|
G|--------------------------------------------------------------------|
D|--------------------------------------------------------------------|
A|--------------------------------------------------------------------|
E|--------------------------------------------------------------------|

e|-22p20p19-22p20p19-22^////////////////r^////--20h22-------------|
B|---------------------------------------------------22--20h20-20-|
G|----------------------------------------------------------------|
D|----------------------------------------------------------------|
A|----------------------------------------------------------------|
E|----------------------------------------------------------------|

e|-----------------------------------------|-17----------------17-19---|
B|-20h22-22--20h22p20----------------------|---------18-17---17--------|
G|-------------------21p19h21p19-----------|---------------------------|
D|------------------------------22p19------|---------------------------|
A|-----------------------------------------|---------------------------|
E|-----------------------------------------|---------------------------|



************************************

| h        hammer on
| p        pull-off
| /        slide up(or fast pick)
| \        slide down
| ^        bend full
| b        bend half
| ^r or br bend and release

************************************

            
            
Suggest correction
Creating personal tab
Creating personal tab
You can edit any tab online and save it as your Personal.

You can edit, replace or remove any tab part or add personal notes – all changes will be seen only by you.

Personal tabs can be accessed anytime from any device, even offline.
Learn more »
comments
print report bad tab
2 comments total.
0 reply
JoePerry's#1fan 10 Aug 14, 2009 12:54 PM

nice man :)

0 reply
GunSmith117 47 Jul 02, 2013 03:03 AM

Dare I say that this tab is...

Smooth? Five stars.

guest
You may want to rate the tab now too:
select rating
Wanna post a correction for this tab? Suggest correction