Oops, an error
Loading. Please wait.

Its Far Better To Learn tab

version 2
version 2

Whole song

Interactive

by Saosin
2,006 views 3 this week
3 commentsread comments
1 2 3 4 5
2 more votes to show rating
add to favorites
×
Save as Personal and add changes to this tab that will be seen only by you. Learn more ›
×
You can save this tab as Personal to edit and correct it or add notes. All changes will be seen only by you. Learn more »
launch autoscroll
font size
0
reset
how to read this tab
guitar tuner
edit
Autoscroll
slow
fast
+/-
esc
set tempo
stop
-------------------------------------------------------------------------------
                             its far better to learn - saosin
-------------------------------------------------------------------------------
Tabbed by:ching vang
Email:chingy-vang@hotmail.com

Tuning:drop C


      I've slowed this song down to as slow as it can get using amazing slow downer 
so this is 100% correct, well atleast the intro is 100%

- INTRO
e|-----------------------7-----7-------10-------10------------------7-----7--|
B|---8---8--7---8--7--8------8---7--8-----7--8-----8--7----8--7--8------8----|
G|-----9------9------------9-----------------------------9------------9------|
D|-------------------------------------End-point^--^Repeat-Point-------------|
A|---------------------------------------------------------------------------|
E|---------------------------------------------------------------------------|

    the intro repeats how many times i cant keep track

e|-----------------------------------------------------19-P-15---------------|
B|------------------------------------------------------------15-------------|
G|---------------------------------------------------------------------------|
D|---2-2-----------------------------------------2-2-------------------------|
A|---2-2------------------Drums------------------2-2-------------------------|
E|---2-2-----------------------------------------2-2-------------------------|

e|---------------------------------------------------------------------------|
B|---------------------------------------------------------------------------|
G|----------------------------------------5-----------7----------------------|
D|----2---------------2-------------------5-----------7----------------------|
A|----2---------------2-------------------3-----------5----------------------|
E|----2---------------2------------------------------------------------------|

e|---------------------------------------------------------------------------|
B|---12-12-12-12-12-12-12-12-12-12----10-10-10-10-10-10----------------------|
G|---12-12-12-12-12-12-12-12-12-12----11-11-11-11-11-11----------------------|
D|---------------------------------------------------------------------------|
A|---------------------------------------------------------------------------|
E|---------------------------------------------------------------------------|

e|---------------------------------------------------------------------------|
B|---------------------------------------------------------------------------|
G|--------------------5------------------7-------------------7---------------|
D|---2----------------5------------------7-------------------7---------------|
A|---2----------------3------------------5-------------------5---------------|
E|---2-----------------------------------------------------------------------|

          thanks e-mail me for support

            
            
Suggest correction
Creating personal tab
Creating personal tab
You can edit any tab online and save it as your Personal.

You can edit, replace or remove any tab part or add personal notes – all changes will be seen only by you.

Personal tabs can be accessed anytime from any device, even offline.
Learn more »
Give kudos to tab author, rate the tab!
1 2 3 4 5
comments
print report bad tab
3 comments total.
0 reply
hiimwilson2010 50 Jul 25, 2008 09:00 AM

its good so far
but ur missing a bunch of other parts

0 reply
hiimwilson2010 50 Jul 25, 2008 09:22 AM

This is what i think is. im not 100% sure but its souds pretty close

heres one part

d|-----------------------------------|
a|-----------------------------------|
f|o---------------------------------o|
c|--2-2-2-2-2-2-2--5-5-2-2-2-2-2-5---|
g|o-2-2-2-2-2-2-2------2-2-2-2-2----o|
c|--2-2-2-2-2-2-2------2-2-2-2-2-----|


and the other.

d|----------------------------------|
a|----------------------------------|
f|o--------------------------------o|
c|-----5---4h5---4-----4h5-----4h5--|
g|o----------------3-3-----5-5-----o|
c|-2-2---2-----2--------------------|

and then u repeat a bunch of the stuff u had.
other than that its a great tab. just those parts were missing.
again im not sure if they're 100% right. but its pretty close

0 reply
Zach juman 10 May 04, 2016 01:27 PM

This looks good, but could be improved with some labels for the various sections.

guest
You may want to rate the tab now too:
select rating
Wanna post a correction for this tab? Suggest correction