Oops, an error
Loading. Please wait.

Seven Years tab

by Saosin
11,088 views 1 this week
no commentswrite comment
1 2 3 4 5
2 more votes to show rating
add to favorites
×
Save as Personal and add changes to this tab that will be seen only by you. Learn more ›
×
You can save this tab as Personal to edit and correct it or add notes. All changes will be seen only by you. Learn more »
launch autoscroll
font size
0
reset
how to read this tab
guitar tuner
edit
Autoscroll
slow
fast
+/-
esc
set tempo
stop
Band: Saosin
Title: Seven Years
Tabbed by: Diego Moncayo from Guayaquil, Ecuador
e-mail: diego.moncayo90@gmail.com

. - Palm Mute 
h - Hammer On 
p - Pull Off 
* - Harmonics 

Standard D Tunning
(D-G-C-F-A-D)

*************************************Intro/Verse**************************************

Guitar 2 
D|--------10-------------10-------------10-------------10----------|                
A|------8----8----8----8----8----8----8----8----8----8----8----8---|
F|---11--------11---11--------11---11--------11---11--------11-----| X4
C|-----------------------------------------------------------------|
G|-----------------------------------------------------------------|
D|-----------------------------------------------------------------|

Guitar 1 
D|-----------------------------------------------------------------|                
A|-----------------------------------------------------------------|
F|-----------------------------------------------------------------| X3
C|------12--------------12--------------12--------------12---------|
G|---10----10---10---10----10---10---10----10---10---10---10---10--|
D|-0----------0----0----------0----8----------8----8---------8-----|

D|-------------------------------------------------------------------|                
A|-------------------------------------------------------------------|
F|-------------------------------------------------------------------| 
C|------12--------------12--------------12---------------12----------|
G|---10----10---10---10----10---10---10----10---10----10----10---10--|
D|-0----------0----0----------0----8----------8----10----------10----|


****************************************Chorus****************************************

Guitar 2
D|---------------------------------------------------------------------|
A|---5*---------------------5*-----------------------------------------|
F|-----5*---------------------5*--2h4-4-4-4p2--------------------------|
C|-2------4h5-5-5-5p4-----2-------------------5--12-12-12-12-12-12-----|
G|-2------------------7---2----------------------10-10-10-10-10-10-----|
D|-0----------------------0-----------------------8--8--8--8--8--8-----|

D|---------------------------------------------------------------------|
A|---------------------------------------------------------------------|
F|-----------7--------------7--------------------7-5-4-----------------|
C|-2-4-4h5-4---5--2-4-4h5-4---5--2-4-5-4-5-7-5-7-------5---------------|
G|---------------------------------------------------------------------|
D|---------------------------------------------------------------------|

                            "Repeat Harmonics"
D|------------------------------------------------------------------|
A|-----------------------5*----7*-----------------------------------|
F|------------5* 12*-7*-----5*--------------------------------------|
C|------------------------------------------------------------------|
G|------------------------------------------------------------------|
D|------------------------------------------------------------------|

 
Guitar 1
D|---------------------------------------------------------------------|
A|---5*---------------------5*-----------------------------------------|
F|-----5*---------------------5*--2h4-4-4-4p2--------------------------|
C|-2------4h5-5-5-5p4-----2-------------------5--12-12-12-12-12-12-----|
G|-2------------------7---2----------------------10-10-10-10-10-10-----|
D|-0----------------------0-----------------------8--8--8--8--8--8-----|

D|---------------------------------------------------------------------|
A|---5*---------------------5*-----------------------------------------|
F|-----5*---------------------5*--2h4-4-4-4p2--------------------------|
C|-2------4h5-5-5-5p4-----2-------------------5------------------------|
G|-2------------------7---2--------------------------------------------|
D|-0----------------------0--------------------------------------------|

D|---------------------------------------------------------------------|
A|---------------------------------------------------------------------|
F|-----4---4-5-4-5-7-5-4-----------------------------------------------|
C|-5-7---7---------------5---------------------------------------------|
G|---------------------------------------------------------------------|
D|---------------------------------------------------------------------|

D|------------------------------------------------------------------------|
A|------------------------------------------------------------------------|
D|------------------------------------------------------------------------|
C|-2-2-2-2-2-2-2-2---12-12-12-12-12---12-12-12-12-12---12-12-12-12-12-----|
G|-2-2-2-2-2-2-2-2---12-12-12-12-12---10-10-10-10-10---10-10-10-10-10-----|
D|-0-0-0-0-0-0-0-0---10-10-10-10-10----7--7--7--7--7----8--8--8--8--8-----|

D|------------------------------------------------------------------------|
A|------------------------------------------------------------------------|
D|------------------------------------------------------------------------|
C|-2-2-2-2-2-2-2-2---12-12-12-12-12---------------------------------------|
G|-2-2-2-2-2-2-2-2---12-12-12-12-12---------------------------------------|
D|-0-0-0-0-0-0-0-0---10-10-10-10-10---------------------------------------|

D|------------------------------------------------------------------------|
A|------------------------------------------------------------------------|
F|------------------------------------------------------------------------|
C|----------12------------------12----------------------------------------|
G|-----10------10---10-----10------10---10--------------------------------|
D|-7-7----7-------7----7-7----7-------7-----------------------------------|
   . .    .       .    . .    .       .

D|------------------------------------------------------------------------|
A|------------------------------------------------------------------------|
F|------------------------------------------------------------------------|
C|----------12------------------12----------------------------------------|
G|-----10------10---10-----10------10---10--------------------------------|
D|-8-8----8-------8----8-8----8-------8-----------------------------------|
   . .    .       .    . .    .       .


****************************************Verse2****************************************

Guitar 2 
D|--------10-------------10-------------10-------------10----------|                
A|------8----8----8----8----8----8----8----8----8----8----8----8---|
F|---11--------11---11--------11---11--------11---11--------11-----| X4
C|-----------------------------------------------------------------|
G|-----------------------------------------------------------------|
D|-----------------------------------------------------------------|

Guitar 1 
D|-----------------------------------------------------------------|                
A|-----------------------------------------------------------------|
F|-----------------------------------------------------------------| X3
C|------12--------------12--------------12--------------12---------|
G|---10----10---10---10----10---10---10----10---10---10---10---10--|
D|-0----------0----0----------0----8----------8----8---------8-----|

D|-------------------------------------------------------------------|                
A|-------------------------------------------------------------------|
F|-------------------------------------------------------------------| 
C|------12--------------12--------------12---------------12----------|
G|---10----10---10---10----10---10---10----10---10----10----10---10--|
D|-0----------0----0----------0----8----------8----10----------10----|


******************************************Chorus**************************************

Guitar 2
D|---------------------------------------------------------------------|
A|---5*---------------------5*-----------------------------------------|
F|-----5*---------------------5*--2h4-4-4-4p2--------------------------|
C|-2------4h5-5-5-5p4-----2-------------------5--12-12-12-12-12-12-----|
G|-2------------------7---2----------------------10-10-10-10-10-10-----|
D|-0----------------------0-----------------------8--8--8--8--8--8-----|

D|---------------------------------------------------------------------|
A|---------------------------------------------------------------------|
F|-----------7--------------7--------------------7-5-4-----------------|
C|-2-4-4h5-4---5--2-4-4h5-4---5--2-4-5-4-5-7-5-7-------5---------------|
G|---------------------------------------------------------------------|
D|---------------------------------------------------------------------|

                            "Repeat Harmonics"
D|------------------------------------------------------------------|
A|-----------------------5*----7*-----------------------------------|
F|------------5* 12*-7*-----5*--------------------------------------|
C|------------------------------------------------------------------|
G|------------------------------------------------------------------|
D|------------------------------------------------------------------|

 
Guitar 1
D|---------------------------------------------------------------------|
A|---5*---------------------5*-----------------------------------------|
F|-----5*---------------------5*--2h4-4-4-4p2--------------------------|
C|-2------4h5-5-5-5p4-----2-------------------5--12-12-12-12-12-12-----|
G|-2------------------7---2----------------------10-10-10-10-10-10-----|
D|-0----------------------0-----------------------8--8--8--8--8--8-----|

D|---------------------------------------------------------------------|
A|---5*---------------------5*-----------------------------------------|
F|-----5*---------------------5*--2h4-4-4-4p2--------------------------|
C|-2------4h5-5-5-5p4-----2-------------------5------------------------|
G|-2------------------7---2--------------------------------------------|
D|-0----------------------0--------------------------------------------|

D|---------------------------------------------------------------------|
A|---------------------------------------------------------------------|
F|-----4---4-5-4-5-7-5-4-----------------------------------------------|
C|-5-7---7---------------5---------------------------------------------|
G|---------------------------------------------------------------------|
D|---------------------------------------------------------------------|

D|------------------------------------------------------------------------|
A|------------------------------------------------------------------------|
D|------------------------------------------------------------------------|
C|-2-2-2-2-2-2-2-2---12-12-12-12-12---12-12-12-12-12---12-12-12-12-12-----|
G|-2-2-2-2-2-2-2-2---12-12-12-12-12---10-10-10-10-10---10-10-10-10-10-----|
D|-0-0-0-0-0-0-0-0---10-10-10-10-10----7--7--7--7--7----8--8--8--8--8-----|

D|------------------------------------------------------------------------|
A|------------------------------------------------------------------------|
D|------------------------------------------------------------------------|
C|-2-2-2-2-2-2-2-2---12-12-12-12-12---------------------------------------|
G|-2-2-2-2-2-2-2-2---12-12-12-12-12---------------------------------------|
D|-0-0-0-0-0-0-0-0---10-10-10-10-10---------------------------------------|

D|------------------------------------------------------------------------|
A|------------------------------------------------------------------------|
F|------------------------------------------------------------------------|
C|----------12------------------12----------------------------------------|
G|-----10------10---10-----10------10---10--------------------------------|
D|-7-7----7-------7----7-7----7-------7-----------------------------------|
   . .    .       .    . .    .       .

D|------------------------------------------------------------------------|
A|------------------------------------------------------------------------|
F|------------------------------------------------------------------------|
C|----------12------------------12----------------------------------------|
G|-----10------10---10-----10------10---10--------------------------------|
D|-8-8----8-------8----8-8----8-------8-----------------------------------|
   . .    .       .    . .    .       .

******************************************Bridge**************************************

Both Guitars
D|---------------------------------------------------------------------|
A|---------------------------------------------------------------------|
F|---------------------------------------------------------------------|
C|----2-2-2-2---2-2-2-2---2-2-2-2---2-2-2-2----------------------------|
G|----2-2-2-2---2-2-2-2---2-2-2-2---2-2-2-2----------------------------|
D|----0-0-0-0---0-0-0-0---0-0-0-0---0-0-0-0----------------------------|


Guitar 2

                            "Repeat Harmonics"
D|------------------------------------------------------------------|
A|-----------------------5*----7*-----------------------------------|
F|------------5* 12*-7*-----5*--------------------------------------|
C|------------------------------------------------------------------|
G|------------------------------------------------------------------|
D|------------------------------------------------------------------|

Guitar 1
D|----------------------------------------------------------------------|
A|----------------------------------------------------------------------|
F|----------------------------------------------------------------------| X5
C|--2-2-2-2---2-2-2-2---12-12-12-12---12-12-12-12-----------------------|
G|--2-2-2-2---2-2-2-2---10-10-10-10---12-12-12-12-----------------------|
D|--0-0-0-0---0-0-0-0----8--8--8--8---10-10-10-10-----------------------|


Both Guitars

Let it ring.

D|---------------------------------------------------------------------|
A|---------------------------------------------------------------------|
F|---------------------------------------------------------------------|
C|-2-------------------------------------------------------------------|
G|-2-------------------------------------------------------------------|
D|-0-------------------------------------------------------------------|
   .

            
            
Suggest correction
Creating personal tab
Creating personal tab
You can edit any tab online and save it as your Personal.

You can edit, replace or remove any tab part or add personal notes – all changes will be seen only by you.

Personal tabs can be accessed anytime from any device, even offline.
Learn more »
Give kudos to tab author, rate the tab!
1 2 3 4 5
comments
print report bad tab
guest
You may want to rate the tab now too:
select rating
Wanna post a correction for this tab? Suggest correction