Oops, an error
Loading. Please wait.

Youre Not Alone tab

version 3
version 3

Interactive

by Saosin
49,429 views 18 this week
13 commentsread comments
1 2 3 4 5
x 19
add to favorites
×
Save as Personal and add changes to this tab that will be seen only by you. Learn more ›
×
You can save this tab as Personal to edit and correct it or add notes. All changes will be seen only by you. Learn more »
launch autoscroll
font size
0
reset
how to read this tab
guitar tuner
edit
Autoscroll
slow
fast
+/-
esc
set tempo
stop
Author
=======================================================================
Song: You're Not Alone
Band: Saosin
Album: Saosin
Tuning: Standard
Tabbed by: Jake Something (sloppyjoe24)

h = hammer on
p = pull off
^ = bend
r = release
t = tap
~ = let it ring
/ = slide up
\ = slide down
. = palm mute
+ = harmonic
v = vibrato
()= optional

I'm not guaranteeing 100% on this one, but it's still my best, so please leave comments 
you think you found a mistake or can help me better this. Thank you.

=======================================================================

Intro: Guitar I (clean with delay)

e|-----------------17-----------------|
B|---18--18-17---18--18-17-18-18-18---|
G|-----17------17---------------------|
D|------------------------------------|x8
A|------------------------------------|
E|------------------------------------|

Intro: Guitar II (clean)

e|--------------------------------------|
B|--------------------------------------|
G|--10-10-10-9-9-9-5-5-5-5-5-5-5-5-5-5--|
D|--------------------------------------|
A|--------------------------------------|
E|--------------------------------------|

e|-----------------------------------------------|
B|-----------------------------------------------|
G|-10-10-10-9-9-9-12-12-12-14-12-12-14-12-14-12--|
D|-----------------------------------------------|
A|-----------------------------------------------|
E|-----------------------------------------------|

e|--------------------------------------|
B|--------------------------------------|
G|--10-10-10-9-9-9-5-5-5-5-5-5-5-5-5-5--|
D|--------------------------------------|
A|--------------------------------------|
E|--------------------------------------|

e|-----------------------------------------------|
B|-----------------------------------------------|
G|-10-10-10-9-9-9-12-12-12-14-12-12-14-12-14-12--|
D|-----------------------------------------------|
A|-----------------------------------------------|
E|-----------------------------------------------|

=======================================================================

Verse: Guitar III (clean)

e|-----------------------------------------------|
B|-----------------------------------------------|
G|--10-10-10-9-9-9-5-5-5-5-5-5-5-5-5-5-----------|
D|-----------------------------------------------|
A|-----------------------------------------------|
E|-----------------------------------------------|
                                                        x3
e|-----------------------------------------------|
B|-----------------------------------------------|
G|-10-10-10-9-9-9-12-12-12-14-14-14-14-14-14-14--|
D|-----------------------------------------------|
A|-----------------------------------------------|
E|-----------------------------------------------|

=======================================================================

Pre-Chorus: Guitar III (clean)

e|----------------------------|
B|----------------------------|
G|--10-10-10-10-10-10-10-10---|
D|----------------------------|x2
A|----------------------------|
E|----------------------------|

e|----------------------------|
B|----------------------------|
G|--12-12-12-12-12-12-12-12---|
D|----------------------------|x2
A|----------------------------|
E|----------------------------|

Pre-Chorus: Guitar II (distorted)

e|-------------------|
B|-------------------|
G|-------------------|
D|--8-8-8-8-8-8-8-8--|x2
A|--8-8-8-8-8-8-8-8--|
E|--6-6-6-6-6-6-6-6--|
    . . . . . . . .
e|-------------------|
B|-------------------|
G|-------------------|
D|--1010101010101010-|x2
A|--1010101010101010-|
E|--8-8-8-8-8-8-8-8--|
    . . . . . . . .

Pre-Chorus: Guitar I (clean)

e|-----------------17-----------------|
B|---18--18-17---18--18-17-18-18-18---|
G|-----17------17---------------------|
D|------------------------------------|x4
A|------------------------------------|
E|------------------------------------|

=======================================================================

Chorus: Guitar I and III (distorted)

e|-----------------------------------------------------------------|
B|-----------------------------------------------------------------|
G|-7-7-7-7-7-7-7-7---------------------------------5-5-5-5-5-5-5-5-|
D|-7-7-7-7-7-7-7-7-8-8-8-8-8-8-8-8-3-3-3-3-3-3-3-3-5-5-5-5-5-5-5-5-|x2
A|-5-5-5-5-5-5-5-5-8-8-8-8-8-8-8-8-3-3-3-3-3-3-3-3-3-3-3-3-3-3-3-3-|
E|-----------------6-6-6-6-6-6-6-6-1-1-1-1-1-1-1-1-----------------|

e|--------------------|
B|--------------------|
G|--------------------|
D|--8-8-8-8-8-8-8-8---|x2
A|--8-8-8-8-8-8-8-8---|
E|--6-6-6-6-6-6-6-6---|


Chorus: Guitar II (distorted)

e|------------------------------------------------------------------|
B|------------------------------------------------------------------|
G|1010101010101010----------------10101010101010105-5-5-5-5-5-5-5-5-|
D|x-x-x-x-x-x-x-x-8-8-8-8-8-8-8-8-x-x-x-x-x-x-x-x-x-x-x-x-x-x-x-x-x-|x2
A|8-8-8-8-8-8-8-8-x-x-x-x-x-x-x-x-8-8-8-8-8-8-8-8-8-3-3-3-3-3-3-3-3-|
E|----------------6-6-6-6-6-6-6-6-----------------------------------|

e|--------------------|
B|--------------------|
G|--1010101010101010--|
D|--x-x-x-x-x-x-x-x---|
A|--8-8-8-8-8-8-8-8---|
E|--------------------|

=======================================================================

Verse:

=======================================================================

Pre-Chorus:

=======================================================================

Chorus: x2

=======================================================================

Solo: Guitar II (distorted)

e|--------------------------------------------------------------------|
B|--------------------------------------------------------------------|
G|-10~~~----12--10~~~-12--/14--10--12-10~~~--9h10---------------------|
D|-------10---------------------------------------10--/12--10~-12-10v-|
A|--------------------------------------------------------------------|
E|--------------------------------------------------------------------|

e|--------------------------------------------------------------------|
B|--------------------------------------------------------------------|
G|--10~~~------12---10~~~-9---7---14~~~--12---14---15~~~---/19--------|
D|--------10----------------------------------------------------------|
A|--------------------------------------------------------------------|
E|--------------------------------------------------------------------|

Solo: Guitar I (clean with delay)

e|-----------------17-----------------|
B|---18--18-17---18--18-17-18-18-18---|
G|-----17------17---------------------|
D|------------------------------------|x8
A|------------------------------------|
E|------------------------------------|

 (change to distorted)
e|--------------------------------------------------------------------|
B|--10~~~------13---10~~~-8---6---13~~~--10---13---13~~~--------------|
G|--------10----------------------------------------------------------|
D|--------------------------------------------------------------------|
A|--------------------------------------------------------------------|
E|--------------------------------------------------------------------|

Solo: Guitar III (distorted)

e|--x16--|--x16--|--x16--|--x16--|--x16--|--x16--|--x16--|--x16--|
B|-------|-------|-------|-------|-------|-------|-------|-------|
G|---10--|-------|---7---|-------|---10--|-------|-------|---8---|
D|---10--|---8---|---7---|---8---|---10--|---8---|---10--|---8---|
A|---8---|---8---|---5---|---8---|---8---|---8---|---10--|---6---|
E|-------|---6---|-------|---6---|-------|---6---|---8---|-------|

=======================================================================

Piano Chorus:

All guitars Tacet

=======================================================================

Chorus: x2

=======================================================================

Outro: Guitar I (clean with delay)

e|-----------------17-----------------|
B|---18--18-17---18--18-17-18-18-18---|
G|-----17------17---------------------|
D|------------------------------------|x12
A|------------------------------------|
E|------------------------------------|

Outro: Guitar II

e|--------------------------------------|
B|--------------------------------------|
G|--10-10-10-9-9-9-5-5-5-5-5-5-5-5-5-5--|
D|--------------------------------------|
A|--------------------------------------|
E|--------------------------------------|

e|-----------------------------------------------|
B|-----------------------------------------------|
G|-10-10-10-9-9-9-12-12-12-14-12-12-14-12-14-12--|
D|-----------------------------------------------|
A|-----------------------------------------------|
E|-----------------------------------------------|

e|--------------------------------------|
B|--------------------------------------|
G|--10-10-10-9-9-9-5-5-5-5-5-5-5-5-5-5--|
D|--------------------------------------|
A|--------------------------------------|
E|--------------------------------------|

e|-----------------------------------------------|
B|-----------------------------------------------|
G|-10-10-10-9-9-9-12-12-12-14-12-12-14-12-14-12--|
D|-----------------------------------------------|
A|-----------------------------------------------|
E|-----------------------------------------------|

e|----------------------------------------------|
B|----------------------------------------------|
G|--10-10-10-9-9-9-5-5-5-5-5-5-5-5-5-5---12~~~~-|
D|----------------------------------------------|
A|----------------------------------------------|
E|----------------------------------------------|

=======================================================================

            
            
Suggest correction
Creating personal tab
Creating personal tab
You can edit any tab online and save it as your Personal.

You can edit, replace or remove any tab part or add personal notes – all changes will be seen only by you.

Personal tabs can be accessed anytime from any device, even offline.
Learn more »
comments
print report bad tab
13 comments total. Showing first comments.
+2 reply
minichibi 101 Jul 18, 2007 02:46 PM

I think that the intro for guitar 2 is wrong. It sounds like its in octaves going:

|---------------------------------------------------------|
|---------------------------------------------------------|
|-10-----9------5------10-----9------5------12------------|
|-x-(x3)-x-(x3)-x-(x9)-x-(x3)-x-(x3)-x-(x3)--x-(x9)-------| x2
|-8------7------3------8------7------3------10------------|
|---------------------------------------------------------|

Thats what it sounds like to me. Otherwise good job.

-1 reply
tosh2894 72 Aug 17, 2007 06:42 PM

boss like

-1 reply
milo18305 10 Mar 15, 2008 02:09 AM

At intro guitar 1 doesnt play that part....live i saw him use a delay pedal and use his harmonics i think 5 and 7th ones on the E A D strings

guest
You may want to rate the tab now too:
select rating
Wanna post a correction for this tab? Suggest correction