Oops, an error
Loading. Please wait.

Vegas bass

364 views 1 this week
no commentswrite comment
1 2 3 4 5
2 more votes to show rating
add to favorites
×
Save as Personal and add changes to this tab that will be seen only by you. Learn more ›
×
You can save this tab as Personal to edit and correct it or add notes. All changes will be seen only by you. Learn more »
launch autoscroll
font size
0
reset
guitar tuner
edit
Autoscroll
slow
fast
+/-
esc
set tempo
stop
Author
Difficulty
Intro
G|-----------------------------------------------------------------|
D|-----------------------------------------------------------------|
A|-1-----1-r-----------------------------------4-------4---3-------|
E|-------------1-------1---1-----1-2-----2-------------------------|
   1 + 2 + 3 + 4 + 1 + 2 + 3 + 4 + 1 + 2 + 3 + 4 + 1 + 2 + 3 + 4 +

G|-----------------------------------------------------------------|
D|-----------------------------------------------------------------|
A|-1-----1-r-----------------------------------4-------4---3-4-3---|
E|-------------1-------1---1-----1-2-----2-------------------------|
   1 + 2 + 3 + 4 + 1 + 2 + 3 + 4 + 1 + 2 + 3 + 4 + 1 + 2 + 3 + 4 +

Verse 0:11
G|-------------------------------------------------------------------|
D|o-----------------------------------------------------------------o|
A|o-1-1-1-1-r-----------------------------------4-------4---3-------o|
E|--------------1-------1---1-----1-2-2-2-2--------------------------|
    1 + 2 + 3 + 4 + 1 + 2 + 3 + 4 + 1 + 2 + 3 + 4 + 1 + 2 + 3 + 4 +

G|-------------------------------------------------------------------|
D|o-----------------------------------------------------------------o|
A|o-1-1-1-1-r-----------------------------------4-------4---3-4-3---o|
E|--------------1-------1---1-----1-2-2-2-2--------------------------|
    1 + 2 + 3 + 4 + 1 + 2 + 3 + 4 + 1 + 2 + 3 + 4 + 1 + 2 + 3 + 4 +

0:35
G|-----------------------------------------------------------------|
D|-----------------------------------------------------------------|
A|-1-1-1-1-r-----------------------------------4-------4---3-------|
E|-------------1-------1---1-----1-2-2-2-2-------------------------|
   1 + 2 + 3 + 4 + 1 + 2 + 3 + 4 + 1 + 2 + 3 + 4 + 1 + 2 + 3 + 4 +

G|-------------------------------------------------------------------|
D|o-----------------------------------------------------------------o|
A|o-1-1-1-1-r-----------------------------------4-------4---3-4-3---o|
E|--------------1-------1---1-----1-2-2-2-2--------------------------|
    1 + 2 + 3 + 4 + 1 + 2 + 3 + 4 + 1 + 2 + 3 + 4 + 1 + 2 + 3 + 4 +

G|-----------------------------------------------------------------|
D|-----------------------------------------------------------------|
A|-1-1-1-1-r-----------------------------------4-------4---3-4-6---|
E|-------------1-------1---1-----1-2-2-2-2-----------------------6-|
   1 + 2 + 3 + 4 + 1 + 2 + 3 + 4 + 1 + 2 + 3 + 4 + 1 + 2 + 3 + 4 +

0:59 Pre Chorus
G|-----------------------------------------------------------------|
D|-------------------------3---------------------------------------|
A|---------------------------------------------6-----------6-8-6---|
E|-4-----------1-------1-----------2-------4-6---------------------|
   1 + 2 + 3 + 4 + 1 + 2 + 3 + 4 + 1 + 2 + 3 + 4 + 1 + 2 + 3 + 4 +

G|-----------------------------------------------------------------|
D|-------------------------3---------------------------------------|
A|---------------------------------------------4-------4---3-------|
E|-4-----4-4---1-------1-------1-1-2-------4-6-------------------4-|
   1 + 2 + 3 + 4 + 1 + 2 + 3 + 4 + 1 + 2 + 3 + 4 + 1 + 2 + 3 + 4 +

1:12
G|-----------------------------------------------------------------|
D|-----------------------------------------------------------------|
A|-----------------------------------------------------------------|
E|-2-----------------------------2-1-------------------------------|
   1 + 2 + 3 + 4 + 1 + 2 + 3 + 4 + 1 + 2 + 3 + 4 + 1 + 2 + 3 + 4 +

G|-9---------------------------------------------------------------|
D|-----9-----------------------------------------------------------|
A|---------7-------------------------------------------------------|
E|-------------0-------------------0---0---------------------------|
   1 + 2 + 3 + 4 + 1 + 2 + 3 + 4 + 1 + 2 + 3 + 4 + 1 + 2 + 3 + 4 +

1:23
G|-----------------------------------------------------------------|
D|-------------------------3---------------------------------------|
A|-1---1-1---------------------4---------------4-------4---3-4-3---|
E|-------------1-1-----1---------4-2-2---2-------------------------|
   1 + 2 + 3 + 4 + 1 + 2 + 3 + 4 + 1 + 2 + 3 + 4 + 1 + 2 + 3 + 4 +

G|-----3-3---------------------------------------------------------|
D|-------------------------3---------------------------------------|
A|-1---------------------------4-----------4-6-4-------4---3-4-3---|
E|-------------1-----1-1---------4-2-2---2-------------------------|
   1 + 2 + 3 + 4 + 1 + 2 + 3 + 4 + 1 + 2 + 3 + 4 + 1 + 2 + 3 + 4 +

1:36
G|-----------------------------------------------------------------|
D|-----------------------------------------------------------------|
A|-1-----1-r-----------------------------------4-------4---3-------|
E|-------------1-------1-1-1---1-1-2-2-2-2-----------------------4-|
   1 + 2 + 3 + 4 + 1 + 2 + 3 + 4 + 1 + 2 + 3 + 4 + 1 + 2 + 3 + 4 +

G|-----------------------------------------------------------------|
D|-----------------------------------------------------------------|
A|-1-1-1-1-r-----------------------------------4-------4---3-4-3---|
E|-------------1-------1-1-1---1-1-2-2-2-2-------------------------|
   1 + 2 + 3 + 4 + 1 + 2 + 3 + 4 + 1 + 2 + 3 + 4 + 1 + 2 + 3 + 4 +

G|-----------------------------------------------------------------|
D|-----------------------------------------------------------------|
A|-1-1-1-1-r-----------------------------------4-------4---3-------|
E|-------------1-------1-1-1---1-1-2-2-2-2-----------------------4-|
   1 + 2 + 3 + 4 + 1 + 2 + 3 + 4 + 1 + 2 + 3 + 4 + 1 + 2 + 3 + 4 +

G|-----------------------------------------------------------------|
D|-----------------------------------------------------------------|
A|-1-1-1-1-r-----------------------------------4-------4---3-4-6---|
E|-------------1-------1-1-1---1-1-2-2-2-2-----------------------6-|
   1 + 2 + 3 + 4 + 1 + 2 + 3 + 4 + 1 + 2 + 3 + 4 + 1 + 2 + 3 + 4 +

2:00
G|-----------------------------------------------------------------|
D|-------------------------3---------------------------------------|
A|---------------------------------------------6-----------6-8-6-4-|
E|-4-----------1-------1-----------2-------4-6---------------------|
   1 + 2 + 3 + 4 + 1 + 2 + 3 + 4 + 1 + 2 + 3 + 4 + 1 + 2 + 3 + 4 +

G|-----------------------------------------------------------------|
D|-------------------------3---------------------------------------|
A|---------------------------------------------4-------4---3-------|
E|-4-----4-4---1-------1-------1-4-2-------4-6-------------------4-|
   1 + 2 + 3 + 4 + 1 + 2 + 3 + 4 + 1 + 2 + 3 + 4 + 1 + 2 + 3 + 4 +

2:11
G|-----------------------------------------------------------------|
D|-----------------------------------------------------------------|
A|-----------------------------------------------------------------|
E|-2-2---------------------------2-1-1-----------------------------|
   1 + 2 + 3 + 4 + 1 + 2 + 3 + 4 + 1 + 2 + 3 + 4 + 1 + 2 + 3 + 4 +

G|-----------------------------------------------------------------|
D|---------8---11--------------------------------------------------|
A|-7---10----------------------------------------------------------|
E|---------------------------------0---0---------------------------|
   1 + 2 + 3 + 4 + 1 + 2 + 3 + 4 + 1 + 2 + 3 + 4 + 1 + 2 + 3 + 4 +

2:23 Bridge
G|-----------------------------------------------------------------|
D|-----------------------------3-------------------------------4---|
A|-------------------------3---------------------------1---4-------|
E|-1---1---1---1---1--14-----------2---2---2---2---2--2------------|
   1 + 2 + 3 + 4 + 1 + 2 + 3 + 4 + 1 + 2 + 3 + 4 + 1 + 2 + 3 + 4 +

G|-----------------------------------------------------------------|
D|-------------------------------------------------4-4-4---4-6-4---|
A|---------2-4---------------------------------1-4-----------------|
E|-4---4-------3-------3---3---3---2---2---2-----------------------|
   1 + 2 + 3 + 4 + 1 + 2 + 3 + 4 + 1 + 2 + 3 + 4 + 1 + 2 + 3 + 4 +

G|-----------------------------------------------------------------|
D|-----------------------------3-------------------------------4---|
A|-------------------------3---------------------------1---4-------|
E|-1---1---1---1---1---4-----------2---2---2---2---2-4-------------|
   1 + 2 + 3 + 4 + 1 + 2 + 3 + 4 + 1 + 2 + 3 + 4 + 1 + 2 + 3 + 4 +

G|-----------------------------------------------------------------|
D|-6-----6-6-8-5---------------------------------------------------|
A|-----------------------------------------------------------------|
E|-----------------------------4-3-2-------------------------------|
   1 + 2 + 3 + 4 + 1 + 2 + 3 + 4 + 1 + 2 + 3 + 4 + 1 + 2 + 3 + 4 +

2:47
G|-----------------------------------------------------------------|
D|-----------------------------------------------------------------|
A|-1-------------------------------------------4-------4---3-------|
E|-------------1-------1---------1-2-------------------------------|
   1 + 2 + 3 + 4 + 1 + 2 + 3 + 4 + 1 + 2 + 3 + 4 + 1 + 2 + 3 + 4 +

G|-----------------------------------------------------------------|
D|-----------------------------------------------------------------|
A|-1---1-1-------------------------------------4-----------3-------|
E|-------------1-------1---1-1-0-1-2-----2-4-6---------------------|
   1 + 2 + 3 + 4 + 1 + 2 + 3 + 4 + 1 + 2 + 3 + 4 + 1 + 2 + 3 + 4 +

G|-----------------------------------------------------------------|
D|-------------------------3---------------------------------------|
A|-1-----1-------------------------------------4-------4---3-------|
E|-------------1-------1-------0-1-2-----2-2-----------------------|
   1 + 2 + 3 + 4 + 1 + 2 + 3 + 4 + 1 + 2 + 3 + 4 + 1 + 2 + 3 + 4 +

G|-----------------------------------------------------------------|
D|-------------------------3---------------------------------------|
A|-1-----1-1-----------------------------------4---4---4---3-4-3---|
E|-------------1-----1-1-1-----0-1-2---2-2-4-6---------------------|
   1 + 2 + 3 + 4 + 1 + 2 + 3 + 4 + 1 + 2 + 3 + 4 + 1 + 2 + 3 + 4 +

3:11
G|-----------------------------------------------------------------|
D|-------------------------3---------------------------------------|
A|---------------------------------------------6-----6-6---6-8-6-4-|
E|-4-----------1-------1-------0-1-2-----2-4-6---------------------|
   1 + 2 + 3 + 4 + 1 + 2 + 3 + 4 + 1 + 2 + 3 + 4 + 1 + 2 + 3 + 4 +

G|-----------------------------------------------------------------|
D|-------------------------3---------------------------------------|
A|---------------------------------------------4-----3-4---3-------|
E|-4-----4-4---1-------1-------0-1-2-----2-4-6---------------------|
   1 + 2 + 3 + 4 + 1 + 2 + 3 + 4 + 1 + 2 + 3 + 4 + 1 + 2 + 3 + 4 +

3:23
G|-----------------------------------------------------------------|
D|-----------------------------------------------------------------|
A|-----------------------------------------------------------------|
E|-2-2---------------------------2-1-1-----------------------------|
   1 + 2 + 3 + 4 + 1 + 2 + 3 + 4 + 1 + 2 + 3 + 4 + 1 + 2 + 3 + 4 +

G|-9---------------------------------------------------------------|
D|-----9-----------------------------------------------------------|
A|---------7-----------------------------------------------13--\---|
E|-------------0-------------------0---0---------------------------|
   1 + 2 + 3 + 4 + 1 + 2 + 3 + 4 + 1 + 2 + 3 + 4 + 1 + 2 + 3 + 4 +

3:35
G|-----------------------------------------------------------------|
D|-------------------------3---------------------------------------|
A|-1-----1-------------------------------------4-------4---3-4-3---|
E|-------------1-------1-------0-1-2-----2-------------------------|
   1 + 2 + 3 + 4 + 1 + 2 + 3 + 4 + 1 + 2 + 3 + 4 + 1 + 2 + 3 + 4 +

G|-----------------------------------------------------------------|
D|-------------------------3---------------------------------------|
A|-1---1-1-------------------------------------4-----3-4---4---3---|
E|-------------1-1-----1-------0-1-2-----2-------------------------|
   1 + 2 + 3 + 4 + 1 + 2 + 3 + 4 + 1 + 2 + 3 + 4 + 1 + 2 + 3 + 4 +

G|-----------------------------------------------------------------|
D|-------------------------3---------------------------------------|
A|-1---1-1-------------------------------------4-----3-4---3-------|
E|-------------1-----1-1-------0-1-2-----2-------------------------|
   1 + 2 + 3 + 4 + 1 + 2 + 3 + 4 + 1 + 2 + 3 + 4 + 1 + 2 + 3 + 4 +

G|-----------------------------------------------------------------|
D|---------------------3-------------------------------------------|
A|-1-----1-----------------3-------------------4-------------------|
E|-------------1-----1---------4---2-------2-----------------------|
   1 + 2 + 3 + 4 + 1 + 2 + 3 + 4 + 1 + 2 + 3 + 4 + 1 + 2 + 3 + 4 +
Tabbed by Dave Vucko

            
            
Suggest correction
Creating personal tab
Creating personal tab
You can edit any tab online and save it as your Personal.

You can edit, replace or remove any tab part or add personal notes – all changes will be seen only by you.

Personal tabs can be accessed anytime from any device, even offline.
Learn more »
Give kudos to tab author, rate the tab!
1 2 3 4 5
comments
print report bad tab
guest
You may want to rate the tab now too:
select rating
Wanna post a correction for this tab? Suggest correction