Oops, an error
Loading. Please wait.

Gloomy Sunday tab

version 1
version 1

Whole song

Interactive

16,621 views 45 this week
no commentswrite comment
1 2 3 4 5
x 4
add to favorites
×
Save as Personal and add changes to this tab that will be seen only by you. Learn more ›
×
You can save this tab as Personal to edit and correct it or add notes. All changes will be seen only by you. Learn more »
launch autoscroll
font size
0
reset
how to read this tab
guitar tuner
edit
Autoscroll
slow
fast
+/-
esc
set tempo
stop
Capo 2  
(all chords relative to the capo)

    Am             Am
e|---------------------------------------------|
B|-------1-----1-------1-----1---------1-----1-|
G|---2-------2-------2-----2---2-----2-----2---|
D|-----2---2-------2-----2---------2-----2-----|
A|-0-------------------------------------------|
E|---------------3---------------2-------------|

e|-----------------------------------------------|
B|-------1---0-----------1-----1-------1-----1---|
G|-----2---2---2-------2-----2-------2-----2---2-|
D|---2-----------2---2-----2-------2-----2-------|
A|-----------------0-----------------------------|
E|-1-----------------------------3---------------|

e|---------------------------------|
B|-------3-----3---------1-----0---| 
G|-----2-----2---2-----2-----2---2-| (intro 2xs and
D|---2-----2---------2-----2-------| verses)
A|---------------------------------|
E|-2---------------1---------------|

[Bridge 1 & 2]
e|-------1-----1---------1-----1---------1-----1---|
B|-----3-----3---3-----3-----3---3-----3-----3---3-|
G|---2-----2---------2-----2---------2-----2-------|
D|-0---------------3---------------0---------------|
A|-------------------------------------------------|
E|-------------------------------------------------|

(these 2 parts (above and below) are for "little white flowers..."
and for "soon there'll be candles..." below is
the continuation for the part above.. not a new
part)

e|-------------0---------------------------------|
B|-------3-------3-------------------------------|
G|---0-4-----4-----------------------------------|
D|-2-------2-------------------------------------|
A|-----------------------------------------------|
E|-----------------------------------------------|

and the part below is for "dreamin'..."
[Bridge 3]
e|---------0-----0-------0-------0---------0-----0-|
B|-------1-----1-------1---1---1-----0-0-0-----0---|
G|-----2-----2-------2-------2---------------2-----|
D|---2---------------------------------------------|
A|-0---------------2---------------4---------------|
E|-------------------------------------------------|

e|-------0-----|  
B|-----1---1---|  
G|---2-------2-| 
D|-------------|  
A|-2-----------|  
E|-------------|  
                                       
(the end is basically the same... but last few picks are
done like this)
e|-------------0---|  
B|-------0-0h1---1-|  
G|-----2-----------|  
D|---2-------------| 
A|-0---------------|
E|-----------------|


************************************

| h  Hammer-on

************************************

            
            
Suggest correction
Creating personal tab
Creating personal tab
You can edit any tab online and save it as your Personal.

You can edit, replace or remove any tab part or add personal notes – all changes will be seen only by you.

Personal tabs can be accessed anytime from any device, even offline.
Learn more »
comments
print report bad tab
guest
Wanna post a correction for this tab? Suggest correction