Oops, an error
Loading. Please wait.

The Story Of Sarah Red bass

version 1
version 1

Whole song

Interactive

by SAT2D
59 views 1 this week
no commentswrite comment
1 2 3 4 5
3 more votes to show rating
add to favorites
×
Save as Personal and add changes to this tab that will be seen only by you. Learn more ›
×
You can save this tab as Personal to edit and correct it or add notes. All changes will be seen only by you. Learn more »
launch autoscroll
font size
0
reset
guitar tuner
edit
Autoscroll
slow
fast
+/-
esc
set tempo
stop
Author
                                      The Story Of Sarah Red                                        


                                                                                               Sat2D
Bass



     W                   W                   W                   W                 
G||-------------------|-------------------|-------------------|-------------------|
D||-------------------|-------------------|-------------------|-------------------|
A||-------------------|-------------------|-------------------|-------------------|
E||-------------------|-------------------|-------------------|-------------------|


  W                   W                   W                   W                   W                 
-------------------|-------------------|-------------------|-------------------|-------------------|
-------------------|-------------------|-------------------|-------------------|-------------------|
-------------------|-------------------|-------------------|-------------------|-------------------|
-------------------|-------------------|-------------------|-------------------|-------------------|


                      ^            ^       ^               ^     ^            ^     
  W                   H.           Q       H.           E  E     H.           Q     
-------------------|--------------------|---------------------|--------------------|
-------------------|--------------------|---------------------|--------------------|
-------------------|--2------------0----|------------------0--|--2------------0----|
-------------------|--------------------|--3------------L-----|--------------------|


  ^               ^     ^            ^       ^               ^     ^            ^     
  H.           E  E     H.           Q       H.           E  E     H.           Q     
---------------------|--------------------|---------------------|--------------------|
---------------------|--------------------|---------------------|--------------------|
------------------0--|--2------------0----|------------------0--|--2------------0----|
--3------------L-----|--------------------|--3------------L-----|--------------------|


  ^               ^     ^            ^       ^               ^     ^            ^     
  H.           E  E     H.           Q       H.           E  E     H.           Q     
---------------------|--------------------|---------------------|--------------------|
---------------------|--------------------|---------------------|--------------------|
------------------0--|--2------------0----|------------------0--|--2------------0----|
--3------------L-----|--------------------|--3------------L-----|--------------------|


  ^               ^     ^            ^       ^               ^     ^            ^     
  H.           E  E     H.           Q       H.           E  E     H.           Q     
---------------------|--------------------|---------------------|--------------------|
---------------------|--------------------|---------------------|--------------------|
------------------0--|--2------------0----|------------------0--|--2------------0----|
--3------------L-----|--------------------|--3------------L-----|--------------------|


  ^               ^     ^            ^       ^               ^     ^            ^     
  H.           E  E     H.           Q       H.           E  E     H.           Q     
---------------------|--------------------|---------------------|--------------------|
---------------------|--------------------|---------------------|--------------------|
------------------0--|--2------------0----|------------------0--|--2------------0----|
--3------------L-----|--------------------|--3------------L-----|--------------------|


  ^               ^     ^            ^       ^               ^     ^            ^     
  H.           E  E     H.           Q       H.           E  E     H.           Q     
---------------------|--------------------|---------------------|--------------------|
---------------------|--------------------|---------------------|--------------------|
------------------0--|--2------------0----|------------------0--|--2------------0----|
--3------------L-----|--------------------|--3------------L-----|--------------------|


  ^               ^     ^            ^       ^               ^     ^            ^     
  H.           E  E     H.           Q       H.           E  E     H.           Q     
---------------------|--------------------|---------------------|--------------------|
---------------------|--------------------|---------------------|--------------------|
------------------0--|--2------------0----|------------------0--|--2------------0----|
--3------------L-----|--------------------|--3------------L-----|--------------------|


  E  E  E  E  E  S S S S S S     Q    E.  E  S E  Q       Q    E.  E  S E  Q     
-----------------------------|-------------------------|------------------------|
-----------------------------|--------------------5----|------------------------|
-----------------------------|--/7----7---7--7-7-------|--5----5---5--5-5--7----|
--3--3--3--3--3--3-3-3-3-3-3-|-------------------------|------------------------|


  Q    E.  E  S E  Q       E.  E.  E.  E.  E  E     Q    E.  E  S E  Q       Q    E.  E  S E  Q     
------------------------|------------------------|------------------------|------------------------|
------------------------|------------------------|-------------------5----|------------------------|
--3----3---3--3-3--5----|--3---5---3---5---3--5--|--7----7---7--7-7-------|--5----5---5--5-5--7----|
------------------------|------------------------|------------------------|------------------------|


                                                    ^            ^       ^               ^   
  Q    E.  E  S E  Q       E.  E.  E.  E.  E  E     H.           Q       H.           E  E   
------------------------|------------------------|--------------------|---------------------|
------------------------|------------------------|--------------------|---------------------|
--3----3---3--3-3--5----|--3---5---3---5---3--5--|--2------------0----|------------------0--|
------------------------|------------------------|--------------------|--3------------L-----|


  ^            ^       ^               ^     ^            ^       ^               ^   
  H.           Q       H.           E  E     H.           Q       H.           E  E   
--------------------|---------------------|--------------------|---------------------|
--------------------|---------------------|--------------------|---------------------|
--2------------0----|------------------0--|--2------------0----|------------------0--|
--------------------|--3------------L-----|--------------------|--3------------L-----|


  ^            ^       ^               ^     ^            ^       ^               ^   
  H.           Q       H.           E  E     H.           Q       H.           E  E   
--------------------|---------------------|--------------------|---------------------|
--------------------|---------------------|--------------------|---------------------|
--2------------0----|------------------0--|--2------------0----|------------------0--|
--------------------|--3------------L-----|--------------------|--3------------L-----|


  ^            ^                                                             
  H.           Q       E  E  E  E  E  S S S S S S     Q    E.  E  S E  Q     
--------------------|-----------------------------|-------------------------|
--------------------|-----------------------------|--------------------5----|
--2------------0----|-----------------------------|--/7----7---7--7-7-------|
--------------------|--3--3--3--3--3--3-3-3-3-3-3-|-------------------------|


  Q    E.  E  S E  Q       Q    E.  E  S E  Q       E.  E.  E.  E.  E  E     Q    E.  E  S E  Q     
------------------------|------------------------|------------------------|------------------------|
------------------------|------------------------|------------------------|-------------------5----|
--5----5---5--5-5--7----|--3----3---3--3-3--5----|--3---5---3---5---3--5--|--7----7---7--7-7-------|
------------------------|------------------------|------------------------|------------------------|


  Q    E.  E  S E  Q       Q    E.  E  S E  Q       E.  E.  E.  E.  E  E   
------------------------|------------------------|------------------------|
------------------------|------------------------|------------------------|
--5----5---5--5-5--7----|--3----3---3--3-3--5----|--3---5---3---5---3--5--|
------------------------|------------------------|------------------------|


   Q    E.  E  S E  Q       Q    E.  E  S E  Q       Q    E.  E  S E  Q     
-------------------------|------------------------|------------------------|
--------------------5----|------------------------|------------------------|
--/7----7---7--7-7-------|--5----5---5--5-5--7----|--3----3---3--3-3--5----|
-------------------------|------------------------|------------------------|


  E.  E.  E.  E.  E  E     Q    E.  E  S E  Q       Q    E.  E  S E  Q       Q    E.  E  S E  Q     
------------------------|------------------------|------------------------|------------------------|
------------------------|-------------------5----|------------------------|------------------------|
--3---5---3---5---3--5--|--7----7---7--7-7-------|--5----5---5--5-5--7----|--3----3---3--3-3--5----|
------------------------|------------------------|------------------------|------------------------|


  E.  E.  E.  E.  E  E      Q    E.  E  S E  Q       Q    E.  E  S E  Q     
------------------------|-------------------------|------------------------|
------------------------|--------------------5----|------------------------|
--3---5---3---5---3--5--|--/7----7---7--7-7-------|--5----5---5--5-5--7----|
------------------------|-------------------------|------------------------|


  Q    E.  E  S E  Q       E.  E.  E.  E.  E  E     Q    E.  E  S E  Q       Q    E.  E  S E  Q     
------------------------|------------------------|------------------------|------------------------|
------------------------|------------------------|-------------------5----|------------------------|
--3----3---3--3-3--5----|--3---5---3---5---3--5--|--7----7---7--7-7-------|--5----5---5--5-5--7----|
------------------------|------------------------|------------------------|------------------------|


  Q    E.  E  S E  Q       E.  E.  E.  E.  E  E      Q    E.  E  S E  Q     
------------------------|------------------------|-------------------------|
------------------------|------------------------|--------------------5----|
--3----3---3--3-3--5----|--3---5---3---5---3--5--|--/7----7---7--7-7-------|
------------------------|------------------------|-------------------------|


  Q    E.  E  S E  Q       Q    E.  E  S E  Q       E.  E.  E.  E.  E  E     Q    E.  E  S E  Q     
------------------------|------------------------|------------------------|------------------------|
------------------------|------------------------|------------------------|-------------------5----|
--5----5---5--5-5--7----|--3----3---3--3-3--5----|--3---5---3---5---3--5--|--7----7---7--7-7-------|
------------------------|------------------------|------------------------|------------------------|


  Q    E.  E  S E  Q       Q    E.  E  S E  Q       E.  E.  E.  E.  E  E     W                 
------------------------|------------------------|------------------------|-------------------|
------------------------|------------------------|------------------------|-------------------|
--5----5---5--5-5--7----|--3----3---3--3-3--5----|--3---5---3---5---3--5--|--7----------------|
------------------------|------------------------|------------------------|-------------------|


  W                   W                   W                                                         
-------------------|-------------------|-------------------|-------------------|-------------------|
-------------------|-------------------|-------------------|-------------------|-------------------|
--L----------------|--L----------------|--L----------------|-------------------|-------------------|
-------------------|-------------------|-------------------|-------------------|-------------------|


  ^            ^       ^               ^     ^            ^       ^  PM PM PM PM              
  H.           Q       H.           E  E     H.           Q       E  E  E  E  E  S S S S S S  
--------------------|---------------------|--------------------|-----------------------------|
--------------------|---------------------|--------------------|-----------------------------|
--2------------0----|------------------0--|--2------------0----|-----------------------------|
--------------------|--3------------L-----|--------------------|--3--3--3--3--3--3-3-3-3-3-3-|


   Q    E.  E  S E  Q       Q    E.  E  S E  Q       Q    E.  E  S E  Q     
-------------------------|------------------------|------------------------|
--------------------5----|------------------------|------------------------|
--/7----7---7--7-7-------|--5----5---5--5-5--7----|--3----3---3--3-3--5----|
-------------------------|------------------------|------------------------|


  E.  E.  E.  E.  E  E     Q    E.  E  S E  Q       Q    E.  E  S E  Q       Q    E.  E  S E  Q     
------------------------|------------------------|------------------------|------------------------|
------------------------|-------------------5----|------------------------|------------------------|
--3---5---3---5---3--5--|--7----7---7--7-7-------|--5----5---5--5-5--7----|--3----3---3--3-3--5----|
------------------------|------------------------|------------------------|------------------------|


  E.  E.  E.  E.  E  E     S S S S S S S S S S S S S S S S    S S S S S S S S S S S S S S S S  
------------------------|----------------------------------|----------------------------------|
------------------------|----------------------------------|----------------------------------|
--3---5---3---5---3--5--|--7-7-7-7-7-7-7-7-7-7-7-7-7-7-7-7-|--5-5-5-5-5-5-5-5-5-5-5-5-5-5-5-5-|
------------------------|----------------------------------|----------------------------------|


  S S S S S S S S S S S S S S S S    S S S S S S S S S S S S S S S S  
----------------------------------|----------------------------------|
----------------------------------|----------------------------------|
--3-3-3-3-3-3-3-3-3-3-3-3-3-3-3-3-|--3-3-3-3-3-3-3-3-3-3-3-3-3-3-3-3-|
----------------------------------|----------------------------------|


  S S S S S S S S S S S S S S S S    S S S S S S S S S S S S S S S S  
----------------------------------|----------------------------------|
----------------------------------|----------------------------------|
--7-7-7-7-7-7-7-7-7-7-7-7-7-7-7-7-|--5-5-5-5-5-5-5-5-5-5-5-5-5-5-5-5-|
----------------------------------|----------------------------------|


  S S S S S S S S S S S S S S S S    S S S S S S S S S S S S S S S S    H         H         
----------------------------------|----------------------------------|---------------------|
----------------------------------|----------------------------------|---------------------|
--3-3-3-3-3-3-3-3-3-3-3-3-3-3-3-3-|--3-3-3-3-3-3-3-3-3-3-3-3-3-3-3-3-|--7\-----------------|
----------------------------------|----------------------------------|---------------------|


  H         H           H        H            H        H                              
---------------------|---------------------|---------------------|-------------------|
---------------------|---------------------|---------------------|-------------------|
--7\-----------------|-----------7\--------|-----------7\--------|-------------------|
---------------------|---------------------|---------------------|-------------------|


  S S S S S S S S S S S S S S S S    S S S S S S S S S S S S S S S S  
----------------------------------|----------------------------------|
----------------------------------|----------------------------------|
--7-7-7-7-7-7-7-7-7-7-7-7-7-7-7-7-|--5-5-5-5-5-5-5-5-5-5-5-5-5-5-5-5-|
----------------------------------|----------------------------------|


  S S S S S S S S S S S S S S S S    S S S S S S S S S S S S S S S S  
----------------------------------|----------------------------------|
----------------------------------|----------------------------------|
--3-3-3-3-3-3-3-3-3-3-3-3-3-3-3-3-|--3-3-3-3-3-3-3-3-3-3-3-3-3-3-3-3-|
----------------------------------|----------------------------------|


  S S S S S S S S S S S S S S S S    S S S S S S S S S S S S S S S S  
----------------------------------|----------------------------------|
----------------------------------|----------------------------------|
--7-7-7-7-7-7-7-7-7-7-7-7-7-7-7-7-|--5-5-5-5-5-5-5-5-5-5-5-5-5-5-5-5-|
----------------------------------|----------------------------------|


  S S S S S S S S S S S S S S S S    S S S S S S S S S S S S S S S S    H         H         
----------------------------------|----------------------------------|---------------------|
----------------------------------|----------------------------------|---------------------|
--3-3-3-3-3-3-3-3-3-3-3-3-3-3-3-3-|--3-3-3-3-3-3-3-3-3-3-3-3-3-3-3-3-|--7\-----------------|
----------------------------------|----------------------------------|---------------------|


  W                   W                   W                   W                   W                 
-------------------|-------------------|-------------------|-------------------|-------------------|
-------------------|-------------------|-------------------|-------------------|-------------------|
-------------------|-------------------|-------------------|-------------------|-------------------|
-------------------|-------------------|-------------------|-------------------|-------------------|


  W                   W                   W                   W                   W                 
-------------------|-------------------|-------------------|-------------------|-------------------|
-------------------|-------------------|-------------------|-------------------|-------------------|
-------------------|-------------------|-------------------|-------------------|-------------------|
-------------------|-------------------|-------------------|-------------------|-------------------|


  W                  
-------------------||
-------------------||
-------------------||
-------------------||




Duration Legend
---------------
W - whole
H - half
Q - quarter
E - 8th
S - 16th
T - 32nd
X - 64th
. - note dotted
|-n-|  - n-tuplets


Tablature Legend
----------------
L - tied note
x - dead note
g - grace note
(n) - ghost note
> - accentuded note
NH - natural harmonic
AH - artificial harmonic
TH - tapped harmonic
SH - semi harmonic
PH - pitch harmonic
h - hammer on
p - pull off
b - bend
br - bendRelease
pb - preBend
pbr - preBendRelease
brb - bendReleaseBend
\n/ - tremolo bar dip
\n - tremolo bar dive
-/n - tremolo bar Release up
/n\ - tremolo bar inverted dip
/n - tremolo bar return
-\n - tremolo bar Release down
S - shift slide
s - legato slide
/ -  slide into from below or out of upwards
\ -  slide into from above or out of downwards
~ - vibrato
W - wide vibrato
tr - trill
TP - tremolo picking
T - tapping
S - slap
P - pop
< - fade in
^ - brush up
v - brush down

            
            
Suggest correction
Creating personal tab
Creating personal tab
You can edit any tab online and save it as your Personal.

You can edit, replace or remove any tab part or add personal notes – all changes will be seen only by you.

Personal tabs can be accessed anytime from any device, even offline.
Learn more »
Give kudos to tab author, rate the tab!
1 2 3 4 5
comments
print report bad tab
guest
You may want to rate the tab now too:
select rating
Wanna post a correction for this tab? Suggest correction